Adonde Vamos, La Mancha De Rolando (tablatura)

Autor: Ivancito | 38119 visualizaciones

Riff 1
e|--------------------0-----0----------------------|
B|----2------0------3-3-----3----------------------|
G|----2------1----2-------2------------------------|
D|--------------0----------------------------------|
A|--0----------------------------------------------|
E|--------0----------------------------------------|

Riff2
e|--------------------2--0-0-----------------------|
B|----2------0------3-3--3-3-----------------------|
G|----2------1----2--------------------------------|
D|--------------0----------------------------------|
A|--0----------------------------------------------|
E|--------0----------------------------------------|


Riff3
e|--------------------0------0-------0-------------|
B|----2------0------3-3--3---3---3---3-----3-------|
G|----2------1----2--------2-------2---------2-----|
D|--------------0----------------------------------|
A|--0----------------------------------------------|
E|--------0----------------------------------------|

Riff4
e|------0------0------0----------------------------|
B|--3---3--3---3--3---3--3-------------------------|
G|----2------2------2------2-----------------------|
D|-------------------------------------------------|
A|-------------------------------------------------|
E|-------------------------------------------------|

Riff1
Me gusta estar reposado
Riff2
si tengo mucho que hacer
Riff1
volver a casa temprano
             Riff2
cuando la tarde empieza a caer.


Riff1
Y que la lluvia me moje
Riff2
y secarme con el sol
Riff1
llevar mi mente muy lejos
       Riff3
donde nadie estuvo.


A        E         D   Dsus2
Me gusta estar abrazado
A         E            D  Dsus2
a mi mujer que es mi dios
A         E        Dsus2
que quema como el fuego
          A         E         D  Dsus2
que arde alla en el medio del sol


A        E          D  Dsus2
Me gusta tener tu risa
  A         E      D  Dsus2
y tu mirada tambien
A            E           Dsus2  D
si los demas tienen prisa
        A            E        Dsus2
dejemos todo y a empezar otra vez.


A      E        D    Dsus2
Aaaaaaaaaaahhhhhhhh
        A
Donde vamos
    E           Dsus2                A          E       Dsus2
corazon donde vamos, corazon de cristaaaaaaaaaaaaaaaaaaal
      A
donde vamos
    E          Dsus2   Riff4
corazon de cristal.       corazón...


A                 E         D  Dsus2
Me gusta el campo a la noche
A       E         D Dsus2
para salir a fumar
A                E         Dsus2
que la luz buena se acerque
             A         E              D Dsus2
y el gran secreto me empiece a contar.


A          E              D Dsus2
Que soy feliz con muy poco
A          E        Dsus2
un arbol y una mujer
A                E        D  Dsus2
un cielo grande, mil estrellas
      A        E           Dsus2
ellas nunca me van a dejar caer.


A      E        D    Dsus2
Aaaaaaaaaaahhhhhhhh
        A
Donde vamos
    E           Dsus2                A          E       Dsus2
corazon donde vamos, corazon de cristaaaaaaaaaaaaaaaaaaal
      A
donde vamos
    E          Dsus2
corazon de cristal.       corazón...


A      E        D    Dsus2
Aaaaaaaaaaahhhhhhhh
        A
Donde vamos
    E           Dsus2                  A        E       Dsus2
corazon donde vamos, corazon de inmortaaaaaaaaaaaaaaaaaaal
      A
donde vamos
    E          Dsus2
corazon de inmortal.       si...


A      E        D    Dsus2
Aaaaaaaaaaahhhhhhhh
      A     E      D  Dsus2
Donde nadie estuvo    Nadie!

(Se repite hasta al final y termina en A)


A       E       D     Dsus2
---    ---     -2-    ---
-2-    ---     -3-    -3-
-2-    -1-     -2-    -2-
-2-    -2-     ---    ---
---    -2-     -x-    -x-
-x-    ---     -x-    -x-
 
Calificar esta versión:
Aviso: Este fichero es trabajo propio de su transcriptor y representa su interpretación personal de la canción. El material contenido en esta página es para exclusivo uso privado, por lo que se prohibe su reproducción o retransmisión, así como su uso para fines comerciales.
Más versiones de Adonde Vamos, La Mancha De Rolando
Adonde Vamos
acordes
Adonde Vamos
tablatura
Descubre más canciones de La Mancha De Rolando