Me Puedes, La Gusana Ciega (tablatura)

Autor: dave | 43960 visualizaciones

ACORDES:> A C#m E D F#m A# C Gm D# F

esta cancion es 100% correcta espero y les guste
 slide= /
hammer on= p
riff 1
e---------------
b---------------
g---7/11-6------
d---------------
a---------------
e---------------
riff 2
e---------------
b---------------
g---------------
d---------------
a-7p9p7p9p7p9/12
e---------------

INTRO
e---------------
B---------------
G---------------
D---------------
A---------------
E-0-2-2-2-4-2-0-


 RIFF 2 ...

e---------------------------------------------------
B---------------------------------------------------
G---4/6/9-4/6/9-4/6/9-4/6/9-4/6/9-------------------
D---------------------------------------------------
A---------------------------------------------7/9/7-
E--------------------------------------------------- X2


A                          C#m
no nesecito ser un mistico nuclear (riff 1)
A                          C#m
para saber que nunca vas a regresar (riff 1)
A                          C#m
si en una fiesta nos volvemos a encontrar(riff 1)
A                          C#m
tenemos que finjir que todo es tan normal (riff 1)

riff 2
 A               E
si descubres que te quiero mas
riff 2
    D            E            A
despues de todo no te puedo engañar

              F#m    D
me vas a ver llorar
              F#m    D
me vas a ver llorar

              F#m
me vas a ver llorar

         A     D        E          A
por su culpa nunca me vas a perdonar

   A                      C#m
No necesito una bola de cristal (riff 1)
   A                      C#m
que muestre como has enredado la verdad (riff 1)
riff 2
   A                E
si te quise ya no quiero mas
riff 2
   D              E          A
despues de todo no te puedo engañar

               F#m    D
me vas a ver llorar
               F#m    D
me vas a ver llorar
               F#m
me vas a ver llorar

         A      D        E          A
por su culpa nunca me vas a perdonar

             F#m    D
me vas a ver llorar
               F#m    D
me vas a ver llorar
               F#m
me vas a ver llorar


A#
si algun dia tu regresas
                                C
y te enteras de que yo nunca te engañe

               Gm    D#
te voy a ver llorar
               Gm    D#
te voy a ver llorar
               Gm
te voy a ver llorar
         A#    D#       F         A#
por su culpa nunca te voy a perdonar

               Gm    D#
me vas a ver llorar
               Gm    D#
me vas a ver llorar
               Gm
me vas a ver llorar
          A#    D#       F         A#
por su culpa nunca me vas a perdonar

solo final

e---------------------------------------------------
b---------------------------------------------------
g-5p7/10-5p7/10-5p7/10-5p7/10-5p7/10--10/12/10------
d---------------------------------------------------
a---------------------------------------------------
e--------------------------------------------------- x2


Calificar esta versión:
Aviso: Este fichero es trabajo propio de su transcriptor y representa su interpretación personal de la canción. El material contenido en esta página es para exclusivo uso privado, por lo que se prohibe su reproducción o retransmisión, así como su uso para fines comerciales.
Más versiones de Me Puedes, La Gusana Ciega
Me Puedes
acordes
Me Puedes
tablatura
Descubre más canciones de La Gusana Ciega