Estación Lunar, La Gusana Ciega (tablatura)

Autor: Anónimo | 20532 visualizaciones

Intro & Riff 1: 
e-----------------------------0--
B--0-----3--0-----3--0-----3-----
G-----0--------0--------0--------
D--------------------------------
A--------------------------------
E--------------------------------

Riff 2:                              Riff 3:
    Em                   Em
e---0--------------------0--------      e------------------------------
B---0--------------------0--------      B------------------------------
G---0--------------------0--------      G------------------------------
D---2--------2--2--------2--------      D--3h4h3h4h3h4h3h4h3h4---------
A---2----0-2------2-0----2--------      A------------------------------
E---0--0------0-------0--0--------      E------------------------------
Riff 1:                                    Riff:2
Em           G               D         Em
Cuelga tus alhajas sobre un santo de metal
Riff 1:                                    Riff:2
Em           G            D           Em
todos tus milagros en la vela de cristal
Riff 3:                        Riff:2
Em    G       D          Em
pide por que pueda regresar
Riff 3:                        Riff:2
Em     G      D          Em
de la transmisión irregular

Con Distorsión:            Seguido de Riff 2:
E:------------------      E:-------------------
B:------------------      B:-------------------
G:--5-----7----------      G:-------------------
D:--5-----7-----2----      D:-------2---2-------
A:--3-----5-----2----      A:---0-2-------2-0---
E:--------------0----      E:-0-------0-------0-
   C5    D5    Em5
   Estación lunar             Riff 2:
e:----------------7-7------3-3-            Estas notas son una adaptación mía, espero
B:----------------6-6------5-5-            puedan encontrar el sonido correcto, si se
G:--5----7--------7-7------4-4-            escucha muy agudo no toquen la primer cuerda
D:--5----7--------0-0------0-0-            en ninguna d’ las vueltas.
A:--3----5---------------------
E:-----------------------------
   C5   D5       G         Em
   girasol no me dejes olvidar
e:-------------------
B:-------------------
G:-555----777--------
D:-555----777---2----
A:-333----555---2----
E:--------------0----
   C5     D5    Em       Riff 2:
   no quiero cambiar

Riff 1:                                 Riff:2
 Em
Fibras luminosas de tu vientre al corazón
Riff 1:                                 Riff:2
Em              G            D            Em
viajas sobre cables enroscados por tu voz
Riff 3:                  Riff:2
Em     G    D        Em
comunicación artificial
Riff 3:                     Riff:2
Em     G    D        Em
convertida en alma digital

E:------------------      E:-------------------
B:------------------      B:-------------------
G:--5-----7----------      G:-------------------
D:--5-----7-----2----      D:-------2---2-------
A:--3-----5-----2----      A:---0-2-------2-0---
E:--------------0----      E:-0-------0-------0-
   C5    D5    Em5
   Estación lunar             Riff 2:
e:----------------7-7------3-3-
B:----------------6-6------5-5-
G:--5----7--------7-7------4-4-
D:--5----7--------0-0------0-0-
A:--3----5---------------------
E:-----------------------------
   C5   D5       G         Em
   girasol no me dejes olvidar
e:----------------7-7------3-3-
B:----------------6-6------5-5-
G:--5----7--------7-7------4-4-
D:--5----7--------0-0------0-0-
A:--3----5---------------------
E:-----------------------------
   C5    D5       G5        Em
   el color de tus ojos es verdad
e:-------------------
B:-------------------
G:-555----777--------
D:-555----777---2----
A:-333----555---2----
E:--------------0----
   C5     D5    Em       Riff 2:
   no quiero cambiar

Solo: acompañado del Riff 2:
e:--------------------
B:-7h8p--7h8p---5s6s5-  p=pull up
G:--------------------
D:--------------------
A:--------------------
E:--------------------

e:----------------7-7------3-3-
B:----------------6-6------5-5-
G:--5----7--------7-7------4-4-
D:--5----7--------0-0------0-0-
A:--3----5---------------------
E:-----------------------------
   C5   D5       G         Em
   girasol no me dejes olvidar
e:----------------7-7------3-3-
B:----------------6-6------5-5-
G:--5----7--------7-7------4-4-
D:--5----7--------0-0------0-0-
A:--3----5---------------------
E:-----------------------------
   C5    D5       G5        Em
   el color de tus ojos es verdad
e:-------------------
B:-------------------
G:-555----777--------
D:-555----777---2----
A:-333----555---2----
E:--------------0----
   C5     D5    Em       Riff 2:
   no quiero cambiar

Esta parte es con Palm mute:            Rasgueo fuerte & Riff 2:
Em                  G         D     Em
Rompes entre frases no te puedo ...
Riff 1:                                   Riff 2:
 Em            G             D          Em
amor desde la luna es tan difícil descifrar

E:------------------      E:-------------------
B:------------------      B:-------------------
G:--5-----7----------      G:-------------------
D:--5-----7-----2----      D:-------2---2-------
A:--3-----5-----2----      A:---0-2-------2-0---
E:--------------0----      E:-0-------0-------0-
   C5    D5    Em5
   Estación lunar             Riff 2:
e:----------------7-7------3-3-
B:----------------6-6------5-5-
G:--5----7--------7-7------4-4-
D:--5----7--------0-0------0-0-
A:--3----5---------------------
E:-----------------------------
   C5   D5       G5         Em
   girasol no me dejes olvidar
e:----------------7-7------3-3-
B:----------------6-6------5-5-
G:--5----7--------7-7------4-4-
D:--5----7--------0-0------0-0-
A:--3----5---------------------
E:-----------------------------
   C5    D5       G5        Em
   el color de tus ojos es verdad
e:----------------7-7------3-3-
B:----------------6-6------5-5-
G:--5----7--------7-7------4-4-
D:--5----7--------0-0------0-0-
A:--3----5---------------------
E:-----------------------------
   C5    D5       G5        Em
   esta vez no me dejes olvidar
e:-------------------
B:-------------------
G:-555----777--------
D:-555----777---2----
A:-333----555---2----
E:--------------0----
   C5     D5    Em       Riff 2:
   no quiero cambiar

Finaliza en Em & Riff 2:

Espero les sirva, cualquier comentario respecto a esta tablatura la agradeceria.
Calificar esta versión:
Aviso: Este fichero es trabajo propio de su transcriptor y representa su interpretación personal de la canción. El material contenido en esta página es para exclusivo uso privado, por lo que se prohibe su reproducción o retransmisión, así como su uso para fines comerciales.
Más versiones de Estación Lunar, La Gusana Ciega
Estación Lunar
acordes
Estación Lunar
tablatura
Estación Lunar (ver 2)
tablatura
Descubre más canciones de La Gusana Ciega