727, La Gusana Ciega (acordes)

Autor: Anónimo | 25644 visualizaciones

abdefsos
Basado en la transcripcion de Gerardo B.[polly02000@yahoo.com]

INTRO:  [se toca B durante el intro, escucha la cancion para que sepas en donde]
E-------------------------------------
B----------------------9--------------
G-------------------8------8--9--8----
D---------------9------------------9--
A-------------------------------------
E-------------------------------------

B      F#      E         F#-B
NA NA NA NA NA  NA NA           X2

B           F#              E        F#          B
PERCIBO EL COLOR DE LA SECUENCIA QUE PERMITE DESPEGAR
B        F#            E         F#      
DIFUMINADO CON LA REALIDAD
B         F#        E         F#-B     
UN DULCE SUEÑOS ME HA TERMINAR
   B                     E            F#      B   INTRO     
ES BUENO LLORAR ES BUENO ESCAPAR  ESPERO NO RECORDAR

ABORDO DE UN 727 ME TRANSPORTO A DONDE ESTAS
DEPOSITABA EN UNA EXTREMIDAD
ESPERAS EL FLUJO TEMPORAL MIENTRAS ACABO DE CANTAR
CALEIDOSCOPIOS EN ALGUN LUGAR

B                           E
NO PUEDES PENSAR QUE QUIERO MATAR
             F#         B
CUANDO YO PUEDA VOLAR
 
B          A    B            A
ENCIMA DE TODO ENCIMA DEL UNIVERSO    X2

D-E-B     

SOLO 1
        G|---8/13--8/15--8/17--17/19/17

SONARON LAS 727 NO ME PUEDO LEVANTAR
EL ECO DEL PASADO NO SE VA
DULCES SUEÑOS ME HA TERMINAR

B                     E            F#         
ES BUENO LLORAR ES BUENO DEJAR QUE BAJE LA MAREA
E          A         E      F#      B
PASAR LA TEMPESTAD PARA VOLVER A VOLAR

B          A    B            A
ENCIMA DE TODO ENCIMA DEL UNIVERSO   
B          A    B            A
ENCIMA DE TODO ENCIMA DEL UNIVERSO   
B          A    B            A
ENCIMA DE TODO ENCIMA DEL UNIVERSO   

D-E-B
  
B         D          A
HAY ALGO AHI QUE NO SE VE 
B          D         A
PRESENTIMIENTOS EN LA PIEL
B          D          A
DE LO QUE PUEDE SUCEDER
B         D     D-E     D-E    B          
VOLANDO HOY    

SOLO 2         
e|--------------------------------------------------------------------------
B|---12--11-10--9-----------------------------------------------------------
G|-11--10--9---9-8~--8-9-10-10~-10-9--2h3h4-2h3h4-2h3h4-4-6-8--8--8-8-8--8--
D|-------------------------------------------------------------9-9-9----9-9-
A|--------------------------------------------------------------------------
E|--------------------------------------------------------------------------

e|-----------------------------------------
B|----------------------------------14---19
G|-9-9-11-13-14/15/16-16-15-14-14-15--15---
D|-----------------------------------------
A|-----------------------------------------
E|-----------------------------------------

B          A    B            A
ENCIMA DE TODO ENCIMA DEL UNIVERSO   
B          A    B            A
ENCIMA DE TODO ENCIMA DEL UNIVERSO   
B          A    B            A     D-E    D-E  D-E  B.
ENCIMA DE TODO ENCIMA DEL UNIVERSO

Este Tab le quiero dedicar a Dzoara: A.L.D.N.T.S.LL.C
Calificar esta versión:
Aviso: Este fichero es trabajo propio de su transcriptor y representa su interpretación personal de la canción. El material contenido en esta página es para exclusivo uso privado, por lo que se prohibe su reproducción o retransmisión, así como su uso para fines comerciales.
Más versiones de 727, La Gusana Ciega
727
acordes
727
bateria
Descubre más canciones de La Gusana Ciega