Todos Los Vientos, La Franela (tablatura)

Autor: Anónimo | 22516 visualizaciones



Esta cancion me gusta mucho
y por eso la escribo
aqui para q ustedes
la toquen en su
aparato jeje

INTRO:Em-D x3 C x2

e.-------------10----------10---------------
B.-12-10-12-10-------12-12----13-12-10------
G.-------------------------------------12---
D.------------------------------------------
A.------------------------------------------
E.------------------------------------------   X3

e.------------------------------------------
B.-12-10-12-10------10----------------------
G.---------------11----11-11h12-9-----------
D.------------------------------------------
A.------------------------------------------
E.------------------------------------------
Em         D  Em          D
  Te miro bien, mientras sale el tren
Em           D             C
  Sintiendo que, no te voy a ver más
Em        D Em          D
  Me saludas, sabes que me matas
Em           D             C
  Sintiendo que, no te voy a ver mas.

INTRO x1
Em       D          Em          D              Em
  El destino nos burlo, miró el campo por los dos
            D         C
  Entra el sol por la ventana
Em  D   Em      D     Em        D            C
  Y será, la velocidad, con la que, llega mañana.

CORO:
D                               C
 Y ahora estoy, sin moverme alejándome
G          D              Am    C               G
 Todos los vientos soplan hoy y tus ojos saben que
           D              Am  C
 Todos los vientos soplan hoy.
G         D               Am    C                G
 No puedo verte en la estación y mis ojos saben que
           D              Am  C
 Todos los vientos soplan hoy.

e.-------------10----------10---------------
B.-12-10-12-10-------12-12----13-12-10------
G.-------------------------------------12---
D.------------------------------------------
A.------------------------------------------
E.------------------------------------------

e.------------------------------------------
B.------------------------------------------
G.-12-11-12-11-11-7-7-7h9-------------------
D.------------------------------------------
A.------------------------------------------
E.------------------------------------------

G      D            Am         C               Em
 Ya paso una eternidad, por eso no te escribí mas
         D              Am
 De una foto, hice un tesoro

CORO: X2

Espero les guste gracias.





Calificar esta versión:
Aviso: Este fichero es trabajo propio de su transcriptor y representa su interpretación personal de la canción. El material contenido en esta página es para exclusivo uso privado, por lo que se prohibe su reproducción o retransmisión, así como su uso para fines comerciales.
Más versiones de Todos Los Vientos, La Franela
Todos Los Vientos
acordes
Todos Los Vientos
tablatura
Descubre más canciones de La Franela