Del Otro Lado Del Mar, La Franela (tablatura)

Autor: Anónimo | 17938 visualizaciones

Intro sobre: D C G C D C G D


------------------------------------------------------------|
------------------------------------------------------------|
------------------------------------------------------------|
------------------------------------------------------------|
-------0-2-3--5-0-2-3-2-0--0-2-3-2-0--5-0-2-3-2-0---0-7-5---|
-0-2-3-------------------3------------------------3---------|

-------------------------------------------------|
-------------------------------------------------|
-------------------------------------------------|
-------------------------------------------------|
-5-0-2-3-2-0---0-2-3-2-0--5-0-2-3-2-0---0-7-5----|
-------------3------------------------3----------|


D C/G G
 Soy,
            C/G       D       C/G    G
el que no puede parar de pensar
      C/G              Em
En esa risa que es tan ilegal,
         C/G
en tu perfume con diley...


D C/G
Sos
C/G       D       C/G    G
La melodía que voy a bailar,
     C/G              Em
si me sumerjo en tus ojos de mar,
        C/G
Quizás un viaje pueda hacer.


G     A               C             D
 Te fuiste tan pronto, a vivir a Europa
G       A                   C   G   Em
 No pude hacer nada, del otro lado  del   mar.

Intro sobre  D C G C D C G D

-------------------------------------------------|
-------------------------------------------------|
-------------------------------------------------|
-------------------------------------------------|
-5-0-2-3-2-0---0-2-3-2-0--5-0-2-3-2-0---0-7-5----|
-------------3------------------------3----------|

D C/G G
Soy
            C/G       D       C/G    G
El que te calma, el que te va a marear
      C/G              Em
Sos la estructura de mi libertad
        C/G
Yo soy hermano de tu piel.-


D C/G G
Sos
            C/G       D       C/G    G
La jugadora que debe arriesgar
      C/G              Em
Vos sos la luz también sos el final
            C/G
Sos la que mezcla y vuelve a dar.


G     A               C             D
 Te fuiste tan pronto, a vivir a Europa
G       A                   C   G   Em
 No pude hacer nada, del otro lado  del   mar.


Am    D                G           C
  y será, que en la oscuridad no existe el miedo
Am        D          C     G/B   (G)     Em
 Se, muy bien, los abrazos te  dejan     ver.

--------------------------------------------------|
--------------------------------------------------|
--------------------------------------------------| ... solo
-------0-2-3--5-0-2-3-2-0--0-2-3-2-0--5-0-2-3-2-0-|
-0-2-3-------------------3------------------------|


Sobre:  Em  C   G

G     A               C             D
 Te fuiste tan pronto, a vivir a Europa
G       A                   C   G   Em
 No pude hacer nada, del otro lado  del   mar.


Sobre intro
Del otro lado del mar, del otro lado del mar
Del otro lado del mar, te voy a buscar, del otro lado del mar
Aunque tenga q nadar, yo ya no puede volver
Y hay mas, ojala te encuentres sola
Te voy a buscar, del otro lado del mar
Aunque tenga q nadar, yo ya no puedo volver y hay más
Ojala te encuentres sola del otro lado del mar,
Del otro lado del mar.



C/G
-3      -3-
-0      -3-
-0   ó  -0-
-2      -2-
-3      -3-
-0      -0-

Este es mi primer aporte, espero les sirva como a mi, un abrazo!
Calificar esta versión:
Aviso: Este fichero es trabajo propio de su transcriptor y representa su interpretación personal de la canción. El material contenido en esta página es para exclusivo uso privado, por lo que se prohibe su reproducción o retransmisión, así como su uso para fines comerciales.
Más versiones de Del Otro Lado Del Mar, La Franela
Del Otro Lado Del Mar
acordes
Del Otro Lado Del Mar
tablatura
Descubre más canciones de La Franela