Por El Amor De Una Mujer, La Firma (tablatura)

Autor: Anónimo | 38078 visualizaciones



q onda raza pues cheque sta rola y no tenia el intro
completo asi q ai c las mando completita con todo y el
solo del acordeon, dedicada especialmente para todas
las mujeres:  KARINA, KARINA HDZG, TAHYMI KARINA,IRMA
LETICIA,LUS SELENE, ITZEL GUADALUPE, MA. FERNANDA,LEO
MARINA,PILAR,GRIELDA,MILDRED,LEYDI DEL CARMEN,YESSI
YOKA,STHEPANIA,JANISS,MARTHA, ANA LAURA,MARILU,
MI DIOSA, VIENTO,LUCINA, SUSANITA LA DEL RATON,CELESTE
etc etc, y a todas.

son la fuente d inspiracion d todo el mundo



dice asi:


D-------------------------------------------------
G-9-----------------------------------------------
B-9-------------------15--------------------------
e-9-10-12-10-9-10-12--14-14-14-14-12-12-10-10-9-9-

D-------------------------------------------------
G--------------------------------9----------------
B-12-12-12---10------10-10-10h9p9----------------
e------9---9--9-9-7-7--------------10--7-9-10-9-7


D-------------------------------------------------
G-------------------------------------------------
B-----------------17-14-10------------------------
e-10---12-12-17-17--------------------------------


                    Cm/Cm7
Por la magia de unos ojos negros
         F
y la ternura de unos labios rojos
      A#                A#sus4
yo me pierdo, y aunque a veces me
                F
han dejado lastimado el corazón
 D#     F               A#
por el amor de una mujer daría todo...


                       Cm/Cm7
Por que ya más de una vez lo comprobé
        F                        A#
el privilegio de adorarlas es un dulce vicio
              A#sus4
y aunque he tocado el fondo del abismo
F                          D#
por un mal cariño, por el amor
        F          A#
de una mujer daría todo...

                D#
Vale la pena llorar
               F         A#
y volver a apostar a ganar,


                      Cm/Cm7
Por el amor de una mujer
         F                      A#
sería capaz de darlo todo sin medida
         A#sus4
voy a perderme entre sus brazos
           Cm/Cm7
y a gotas dar hasta mi vida
         F
que no daría por el placer
            A#
de amar a una mujer...


                     Cm/Cm7
Por el amor de una mujer
          F                         A#
a ojos cerrados aunque vaya hacia un abismo
          A#sus4
podría perder hasta el orgullo
           Cm/Cm7
por ser feliz unos segundos
          F
que no daría por el placer
            A#
de amar a una mujer...

PUENTE:  G#7  Cm  F  A#  A#sus4  Cm  D#   F  A#

solo:

D-------------------------------------------------
G-10----------------------------------------------
B--------------12---12-----------12-12-10--10-12--
e---12-9-9-10-9-------9-10-10-9-9---------------9-

D-------------------------------------------------
G---9---------------------------------------------
B-10----------------12-12-12---10-10-10-9---------
e-----12-12-12-9-9-9----------------------10-7-9--

D-------------------------------------------------
G-------------------------------------------------
B-------------------17-14-10----------------------
e-10-9-7-10-12-12-17------------------------------

se repite,

porque ya mas de una vez lo comprobe

que el..............................


final:

D-------------------------------------------------
G-------------------------------------------------
B-9----------------9----------------9----12-10----
e-9-10-12-10-9-10-10-12-14-12-10-12-9-9-9------9--


se repite hasta q acada der aki en adelante
D-------------------------------------------------
G-------------------------------------------------
B-10----12-10-------------------------------------
e--9-9-9-----12----------------------------------





  A#SUS 4
E  1
A  1
D  3
G  3
B  4
E  1





Calificar esta versión:
Aviso: Este fichero es trabajo propio de su transcriptor y representa su interpretación personal de la canción. El material contenido en esta página es para exclusivo uso privado, por lo que se prohibe su reproducción o retransmisión, así como su uso para fines comerciales.
Más versiones de Por El Amor De Una Mujer, La Firma
Por El Amor De Una Mujer
acordes
Por El Amor De Una Mujer
tablatura
Descubre más canciones de La Firma