El Son Del Dolor, La Cuca (tablatura)

Autor: salatiel | 32181 visualizaciones



  F#          C#

e -9--       -9--     pues esta super chida esta rola
B -11-       -9--
G -11-       -10-
D -11-       -11-
A -9--       -11-
E -9--       -9--
    F#                     C#
e-----------------------------------------------
B---11--11--11-11-11-11----9---9---9---9--9--9--
G---11--11--11-11-11-11----10--10--10-10-10-10--
D---11--11--11-11-11-11----11--11--11-11-11-11--
A-----------------------------------------------
E-----------------------------------------------
2. RIFF
Nuevamente, sin dejar de hacer las pisadas básicas, haremos
el siguiente arreglo, utilizando el meñique para la
segunda cuerda en el traste
11 al final del C# (es como si se hiciera un C#7,
pero un traste antes)

   F#                     C#
e------------------------------9-------------------
B--------11--------12----------9------9--11---9----
G--------11--------11---------10-----10--10--10-10-
A--------------------------------------------------
D--9--9------9--9------9--11-----------------------
E--------------------------------------------------
   F#                     C#
e--------------------------------------------
B--11-11-11-11-X-X-11-X-X--9-X-X--9-X--9-X-X-
G--11-11-11-11-X-X-11-X-X-10-X-X-10-X-10-X-X-
A--11-11-11-11-X-X-11-X-X-11-X-X-11-X-11-X-X-
D--------------------------------------------
E--------------------------------------------

4. INTERMEDIO
Se toca exactamente igual que la intro... Igualito!

    F#                     C#
e-----------------------------------------------
B---11--11--11-11-11-11----9---9---9---9--9--9--
G---11--11--11-11-11-11----10--10--10-10-10-10--
D---11--11--11-11-11-11----11--11--11-11-11-11--
A-----------------------------------------------
E-----------------------------------------------
5. RIFF DEL FINAL DEL INTERMEDIO
Estoy 100% seguro de que asi va, los demás que he visto
no me convencen

e-------------------------------
B-------------------------------
G----------------------let ring-
D--4--3---------------6---------
A--------6--4---------4---------
E--------------6--4-------------
Bueno pus aquí esta carnales  arriba la CANACA  





Calificar esta versión:
Aviso: Este fichero es trabajo propio de su transcriptor y representa su interpretación personal de la canción. El material contenido en esta página es para exclusivo uso privado, por lo que se prohibe su reproducción o retransmisión, así como su uso para fines comerciales.
Más versiones de El Son Del Dolor, La Cuca
El Son Del Dolor
acordes
El Son Del Dolor
tablatura
Descubre más canciones de La Cuca