Otra Noche Más, La Beriso (tablatura) (ver 2)

Autor: AleCosta | 41267 visualizaciones



----------------------------------------------------------------------------
			    Otra Noche Más - La Beriso
----------------------------------------------------------------------------
Tabbed by: Costa Alejandro
E-mail: alejandro.r.costa@gmail.com


			SOLO
		       ------



e|---------------------------------------------------------------------------------|
B|---------------------------------------------11-12-13-14-------------------------|
G|----------------14b-18----14/15\14----13-13--------------13b\11--13\11----11-11--|
D|-------13-16-13--------------------16----------------------------------13--------|
A|-13-16---------------------------------------------------------------------------|
E|---------------------------------------------------------------------------------|





                      Lento    full
e|---------------------------------------------------------|
B|--------14/16-14---14/16\14-------14---------------------|
G|-----11----------------------13b-------15\13\11----------|
D|--13--------------------------------------------13-16----|
A|---------------------------------------------------------|
E|---------------------------------------------------------|






e|----------------14----------14--|-14-14-14\11--11-11\9-9-9\7-7-7----|
B|--------------------------------|-----------------------------------|
G|-14/15-15-16\15----15-16-15-----|-----------------------------------|
D|--------------------------------|-----------------------------------|
A|--------------------------------|-----------------------------------|
E|--------------------------------|-----------------------------------|






e|-16/18-14-------14-16/18-16---16/18\16----18-18---16/18\16---------|
B|-------------16------------------------19------------------18-19---|
G|-------------------------------------------------------------------|
D|-------------------------------------------------------------------|
A|-------------------------------------------------------------------|
E|-------------------------------------------------------------------|



	b = Bending 
	/ = Arrastre Ascendente
	\ = Arrastre Descendente
	full = bending full

 Este es un solo muy sencillo. Espero que lo disfruten.
 En otro post está la INTRO.
  Alejandro Costa.





Calificar esta versión:
Aviso: Este fichero es trabajo propio de su transcriptor y representa su interpretación personal de la canción. El material contenido en esta página es para exclusivo uso privado, por lo que se prohibe su reproducción o retransmisión, así como su uso para fines comerciales.
Más versiones de Otra Noche Más, La Beriso
Otra Noche Mas
acordes
Otra Noche Más
tablatura
Otra Noche Más (ver 2)
tablatura
Descubre más canciones de La Beriso