No Me Olvides, La Beriso (tablatura)

Autor: AleCosta | 46173 visualizaciones



-------------------------------------------------------------------------------
			     No me olvides - La Beriso
-------------------------------------------------------------------------------
Tabbed by: Costa Alejandro
E-mail: alejandro.r.costa@gmail.com


e|-------------------------------------------|
B|-------------------------------------------|
G|-------7-8-9-10-11--8b---------------------|
D|--7^9-------------------11-9-11--9---------|
A|-----------------------------------11-9-11-|
E|-------------------------------------------|


e|-------6/7\6---------------------------------------|
B|----9b-------9-7---7/9\7-----------7---------------|
G|-------------------------9-7---7-9---9-7-------7---|
D|-----------------------------9-----------9-7/9-----|
A|---------------------------------------------------|
E|---------------------------------------------------|


e|----7---9---11-9-11-12-11--|
B|--7---7---7----------------|
G|---------------------------|
D|---------------------------|
A|---------------------------|
E|---------------------------|


e|-----11-12-11----11-14-12-11-12-16b-----------------|
B|--14----------14----------------------17/19\17-14---|
G|----------------------------------------------------|
D|----------------------------------------------------|
A|----------------------------------------------------|
E|----------------------------------------------------|


e|--19b-16-17-19-17-16----16------------------------------|
B|---------------------19----19-17-16-17-16---------------|
G|------------------------------------------18-16-18-16---|
D|--------------------------------------------------------|
A|--------------------------------------------------------|
E|--------------------------------------------------------|


e|------------------------------|------------------------|
B|------------------------------|-17-16-17-19-19/21\19---|
G|--------16----16-18----20-----|------------------------|
D|--12/16----16-------16----16--|------------------------|
A|------------------------------|------------------------|
E|------------------------------|------------------------|



 				/   slide up

				 \   slide down

				 b   Bend


		Es una base del punteo. Espero que les sirva. Costa, Alejandro.





Calificar esta versión:
Aviso: Este fichero es trabajo propio de su transcriptor y representa su interpretación personal de la canción. El material contenido en esta página es para exclusivo uso privado, por lo que se prohibe su reproducción o retransmisión, así como su uso para fines comerciales.
Más versiones de No Me Olvides, La Beriso
No Me Olvides
tablatura
No Me Olvides (ver 2)
tablatura
Descubre más canciones de La Beriso