El Exito, La Beriso (tablatura)

Autor: chicometal | 19511 visualizaciones



Intro:(Bm-D-A) x4

E|--------9-10-10---14-12-10------------9-9---------------
B|--12-12-------------------10-10-10-12-----12-10-12------
G|--------------------------------------------------------
D|--------------------------------------------------------
A|--------------------------------------------------------
E|--------------------------------------------------------

E|--------9-10-10---14-12-10---17-17-15-15--10------------
B|--12-12-------------------10----------------12-10-12----
G|--------------------------------------------------------
D|--------------------------------------------------------
A|--------------------------------------------------------
E|--------------------------------------------------------

E|--------9-10-10---14-12-10------------9-9---------------
B|--12-12-------------------10-10-10-12-----12-10-12------
G|--------------------------------------------------------
D|--------------------------------------------------------
A|--------------------------------------------------------
E|--------------------------------------------------------

E|--------9-10-10---14-12-10---17-17-15-15----------------
B|--12-12-------------------10----------------------------
G|--------------------------------------------------------
D|--------------------------------------------------------
A|--------------------------------------------------------
E|--------------------------------------------------------

Bm                D           A
Si alguna vez pensaste que la vida
Bm               D            A
Te paso todo el tiempo por encima
Bm                D           A
Si alguna vez cruzaste la tormenta
Bm                   D              A
Y hoy sin querer la buena suerte empieza

Bm                 D           A
Cuando intentas y nunca nada llega
Bm                 D              A
Cuando pensas que solo habrá tristezas
Bm                    D             A
Cuando tu cuerpo se agota en la largada
Bm                  D             A
La buena suerte te toca y todo arranca

G         D       A
Eso es el éxito amor
G       D        A
Pararte y dar pelea
G         D           A
Tratar de ser el campeón
G        D       A  A#
Sacarte toda la mierda
(Bm-D-A) x2

Bm                 D           A
Cuando olvidaste tu sonrisa en la esquina
Bm                 D           A
Cuando pensas que hay demasiado en tu mochila
Bm                 D           A
Cuando pensas que nada te levanta
Bm                 D           A
La buena suerte comienza y todo arranca


G         D       A
Eso es el éxito amor
G       D        A
Pararte y dar pelea
G         D           A
Tratar de ser el campeón
G        D       A  A#
Sacarte toda la mierda
(Bm-D-A)Sacarte toda la mierda
(Bm-D-A)Sacarte toda la mierda
(Bm-D-A)Sacarte toda la mierda
(Bm-D-A)Sacarte toda la mieeeeeeeeeerda





Calificar esta versión:
Aviso: Este fichero es trabajo propio de su transcriptor y representa su interpretación personal de la canción. El material contenido en esta página es para exclusivo uso privado, por lo que se prohibe su reproducción o retransmisión, así como su uso para fines comerciales.
Más versiones de El Exito, La Beriso
El Exito
acordes
El Exito
tablatura
Descubre más canciones de La Beriso