Sobre Mis Pies, La Arrolladora Banda El Limon (tablatura)

Autor: miky458 | 39139 visualizaciones



Introducción:

          G                                    C
E --------7-----------7-----------7---7-7----------------
B ----------10-8---10---10-8---10---------10-8-10-8------
G --7-9-7-------------------------------------------9----
D -------------------------------------------------------
A -------------------------------------------------------
E -------------------------------------------------------


          D                                              G
E -------------------------------------------------------7---------
B --------10-8-10-8-10-----10-8-10-8-10---10-8---10-8-10---8-------
G --7-9-7----------------7------------------------------------9----
D --------------------------------------------------------------10-
A -----------------------------------------------------------------
E -----------------------------------------------------------------

           C    D          G          C  D         G
E --7-8-10-12---12-10-8-10-----7------------8-7----------
B -------------------------8-----10-8-----------10-8-----
G ------------------------------------9------------------
D -------------------------------------------------------
A -------------------------------------------------------
E -------------------------------------------------------
                            





AL FINAL SE PUNTEA ESTO
   G   D      G   D      G   D      G   D      G
E ------8-7--------8-7--------8-7--------8-7-------------
B --8-------10-8-------10-8-------10-8-------10-8--------
G -------------------------------------------------------
D -------------------------------------------------------
A -------------------------------------------------------
E -------------------------------------------------------





Calificar esta versión:
Aviso: Este fichero es trabajo propio de su transcriptor y representa su interpretación personal de la canción. El material contenido en esta página es para exclusivo uso privado, por lo que se prohibe su reproducción o retransmisión, así como su uso para fines comerciales.
Más versiones de Sobre Mis Pies, La Arrolladora Banda El Limon
Sobre Mis Pies
acordes
Sobre Mis Pies
tablatura
Descubre más canciones de La Arrolladora Banda El Limon