Daría, La 5a. Estación (tablatura)

Autor: Anónimo | 44487 visualizaciones

Acordes: con guitarra acustica.
-------

        [F]   [Dm]  [Gm]    [C]   [A#]
   e|----8-----5-----10------8-----6----|
   b|---10-----6-----11------8-----6----|
   g|---10-----7-----12------9-----7----|
   d|---10-----7-----12-----10-----8----|
   a|----8-----5-----10-----10-----8----|
   e|------------------------8-----6----|


Intro: F
-----
         F                          Dm
e||---------------------------------------
b||----8/10----8^10-8--8^10-8-------------
g||-----------------------------9-9/10----
d||---------------------------------------
a||---------------------------------------
e||---------------------------------------

         Gm                            C
e|-------------------------------------------
b|----10/11----10^11-10--10^11-10------------
g|-------------------------------------------
d|----------------------------------12-10----
a|-------------------------------------------
e|-------------------------------------------

                       F
e|---------------------------||
b|-------10-8----------------||
g|-------------10--9-9/10----||
a|----10---------------------||
a|---------------------------||
e|---------------------------||


Estrofa:
-------                             e|--10--12------8--|
 F                Dm                b|----------10-----|
   Daría lo que fuera por tener <-- g|-----------------|

 F                  Dm                  Gm
   Tan sólo unos segundos para desaparecer
         A#                     F
   pero sigo tan visible como ayer.
                                    e|--10^^12---------|
                  Dm                b|----------10/13--|
   Daría lo que fuera por saber <-- g|-----------------|

 F                       Dm
   Que el suelo sigue aquí bajo mis pies
         Gm        A#                      C
   pero no, Sigo siendo tan volátil como ayer


Coro:
----

[A#5]
        F  C                Dm
   Y daría, tantas cosas daría
 C                   A#         Gm          C
   Solo porque este mundo no girara tan deprisa
[A#5]              F  C                  Dm
   Tantas cosas daría, por no ver tus manías
 C                  A#           Gm           C   [A#5]
   Por quedarme colgada una vez más de tu sonrisa


intro: (bis x1)

estrofa: 2 (igual que estrofa 1)
-------

   Daría lo que fuera por saber
   Que piensas cuando dices
   que todo va bien tal vez,
   tendría una razón para correr


coro: (bis x1)

         Gm          A#           C            F
   Y ya ves, no me quedan tantas cosas por perder

Solo:
----
        F                   C
e|----------------------------------------------
b|--11--11`10--10`8--8`6---/11`10--10`8--8`6----
g|----------------------------------------------
d|----------------------------------------------
a|----------------------------------------------
e|----------------------------------------------

       Dm                     C
e|-------------------------------------------------------
b|-------------------------------------------------------
g|--------10---------------------------------------------
d|--10^12-----12-10-12-10-----10-8-7--7^8^7--------------
a|-------------------------------------------8-8^10-8----
e|-------------------------------------------------------

    Gm                                       C
e|-----------------------------------------------------
b|-------------------------)--(13)---)---------)(------
g|-------10-10--------10-12--------12-12-10--12--12----
d|--10^12--------10^12---------------------------------
a|-----------------------------------------------------
e|-----------------------------------------------------

[A#5]
        F  C                Dm
   Y daría, tantas cosas daría
 C                   A#         Gm          C
   Solo porque este mundo no girara tan deprisa
[A#5]              F
   Tantas cosas daría...

punteo: (bis x1)

[A#5]   F
   Y daría.


        º================================º
        |    --> c R i S t i 4 N <--     |
        | cristian_alvarez3@terra.com.pe |
        º================================º
Calificar esta versión:
Aviso: Este fichero es trabajo propio de su transcriptor y representa su interpretación personal de la canción. El material contenido en esta página es para exclusivo uso privado, por lo que se prohibe su reproducción o retransmisión, así como su uso para fines comerciales.
Más versiones de Daría, La 5a. Estación
Daria
acordes
Daria (ver 2)
acordes
Daría
tablatura
Daría (ver 2)
tablatura
Descubre más canciones de La 5a. Estación