10 Mandamientos, La 25 (acordes)

Autor: enzo_intoxicado | 40000 visualizaciones


BUENO PARA EMPESAR, ESTE TEMA LLEVA EFECTO DE GUA GUA
LO Q YO DOY SON LOS ACORDES Y PUNTEOS, PERO PRUEVENLO CON EL EFECTO
Y TAMBIEN CONVIENE TOCAR CON NOTAS 5tas SUENA MEJOR


ACA VA =):


 INTRO:     (RIFF1)
1)--------------------------------------------------|
2)--------------------------------------------------|
3)--------------------10--8v------------------------|
4)-----10---10-10--8---------10-10--8----8V--10-10--|
5)------------------------------------10------------|
6)--------------------------------------------------|


1)--------------------------------------------------|
2)--------------------------------------------------|
3)--------------------10--8V----------9V------------|
4)-----10---10-10--8---------10-8--8----------------|
5)--------------------------------------------------|
6)--------------------------------------------------|


UNA VEZ Q EMPIESA TODA LA BANDA A SONAR, UNA GUITARRA ACOMPAÑA
SOLAMENTE HACIENDO ESTO:


     RIFF 2
1)---------------------------|
2)-------------10--8V--------|
3)-------------10--8V--------| EL VIBRATO EN EL CASILLERO
4)------10-10----------------| 8 ES BASTANTE FUERTE
5)---------------------------|
6)---------------------------|




AHORA EN EL TEMA, SOLO SE ESCUCHA EL BAJO EL TECLADO Y LA BATERIA
PERO CON UN POCO DE ATENCION ENCONTRAMOS UN AREGLO MUY SINPLE DE GUITARRA
ESTA ACONTINUACION


        RIFF 3

1)---------------------------|
2)-------------9-------------|
3)-------------9-------------|
4)---------10----------------|
5)---------------------------|
6)---------------------------|



      RIFF 3
Buscaras una salida un punto de partida
      RIFF 3
y el callejon se corta al final
      RIFF 3
programado estas antes que naciste
      RIFF 3
y tu mision poder escapar

RIFF 3
sabes que te espero deonde desespero

RIFF 3
siempre en el mismo lugar

        RIFF 3
piedra libre compañero

                      RIFF 3
aunque estes muy lejos

el duende te va a encontrar



RIFF 2 X 4




          RIFF 3
cuando encuentres la salida

el punto de partida

  RIFF 3
tu masa ya no tendra final

       RIFF 3
y prisionero estas en tu jaula de hueso

RIFF 3
donde te vas a escapar

   RIFF 3
y sabes q te espero

donde desespero
  RIFF 3
ten cuidado al llegar

       RIFF 3
los boludos son como las hormigas

    RIFF 3
en todas partes estan

FA*                     SI
frases celebres si las ahi

FA*                             SI
desde que naciste programado estas

      MI                         SI
ajajajaja respetaras diez mandamientos

      MI                        SI
ajajajaja o en el infierno cagaras

      MI                          SI
ajajajaja quiero vivir mil rockanroles

MI                          SI  LA  SOL FA#
aaaaaa q nadie pare de saltar

FA#
no quieres verte mal y sonreiras

FA#
aunque te estes muriendo


  RIFF 2 X 8


           RIFF 3
cuando encuentres la salida

el punto de partida

    RIFF 3
tu masa ya no tendra final
         RIFF 3
y pricionero estas en tu jaula de hueso

RIFF 3
donde te vas a escapar
   RIFF 3
y sabes que te espero

donde desespero
RIFF 3
ten cuidado al llegar
      RIFF 3                      RIFF 3
los boludos son como las hormigas

en todas partes estan
FA*
y al que le quepa el poncho
                   SI
que se  lo ponga ya
             FA*
y este callejon
                  SI
se cortara al final


      MI                         SI
ajajajaja respetaras diez mandamientos

      MI                        SI
ajajajaja o en el infierno cagaras

      MI                          SI
ajajajaja quiero vivir mil rockanroles

MI                          SI  LA  SOL FA#
aaaaaa q nadie pare de saltar

FA#
no quieres verte mal y sonreiras

FA#
aunque te estes muriendo



RIFF 2 X 8


FA*

1)---------------------------|
2)-------------11------------|
3)-------------11------------|
4)---------9-----------------|
5)---------------------------|
6)---------------------------|





BUENO ESO ES TODO SI SALE BIEN, A MI ME SUENA BASTANTE BIEN 


AGUANTE LA 25 Y LA STONICA!!,

Calificar esta versión:
Aviso: Este fichero es trabajo propio de su transcriptor y representa su interpretación personal de la canción. El material contenido en esta página es para exclusivo uso privado, por lo que se prohibe su reproducción o retransmisión, así como su uso para fines comerciales.