Lilium, Kumiko Noma (tablatura)

Autor: pfeg | 27188 visualizaciones

Lilium, el tema del opening de Elfen lied, canción interpretada par la soprano kumiko Noma.. Nota esta versión no está completa ya extravasada en el opening y sonidos de la cajita musical que lleva lucy comenten..

E --9-4---5--5----9-4---5-7-5---|
B 7------5------7------5------7-|
G -------6------------6---------|
D ------------------------------|
A ------------------------------|
E ------------------------------|
                                                                                 
E ---------------------------------------------------------|
B -------9-----------------7--------------9-10-12-10--12-9-|
G 7-6?4----9-8-9---6-4-3-----7-6-7-9--11-------------------|
D ---------------------------------------------------------|
A ---------------------------------------------------------|
E ---------------------------------------------------------|

E --9-4---5--5----9-4---5-7-5---|
B 7------5------7------5------7-|
G -------6------------6---------|
D ------------------------------|
A ------------------------------|
E ------------------------------|

E ---------------------------------7-5-4-----------|
B -------9-----------------7-------------7-6-4-6-7-|
G 7-6?4----9-8-9---6-4-3-----7-6-7-----------------|
D -------------------------------------------------|
A -------------------------------------------------|
E -------------------------------------------------|

E -------9-10------10-9-12----9-----------------|
B -11-12------10-9---------10?12-10-9-7-10-12-9-|
G ----------------------------------------------|
D ----------------------------------------------|
A ----------------------------------------------|
E ----------------------------------------------|

E --9-4---5--5----9-4---5-7-5---|
B 7------5------7------5------7-|
G -------6------------6---------|
D ------------------------------|
A ------------------------------|
E ------------------------------|

E ---------------------------------7-5-4---------------------|
B -------9-----------------7-------------7-6-4-6-7?-10/12-10-|
G 7-6?4----9-8-9---6-4-3-----7-6-7---------------------------|
D -----------------------------------------------------------|
A -----------------------------------------------------------|
E -----------------------------------------------------------|

Comentarios del colaborador: Esta es mi propia versión.

Calificar esta versión:
Aviso: Este fichero es trabajo propio de su transcriptor y representa su interpretación personal de la canción. El material contenido en esta página es para exclusivo uso privado, por lo que se prohibe su reproducción o retransmisión, así como su uso para fines comerciales.