Lejos De Aquí, Kudai (bajo)

Autor: Anónimo | 20839 visualizaciones



*11 se lee fafa...asi como las q siguen(tb 511 es la fa fa)

a donde van
E|-------|--33--|--1-1---|
A|33-33-3|------|--------|x4
D|-------|------|--------|
G|-------|------|--------|

cuando el cielo
E|-------|--33--|--1-1---|
A|55-55-5|------|--------|x2
D|-------|------|--------|
G|-------|------|--------|

(CORO)
cuando ya se tarte
E|------11|1-----11|1-----11|1-----11|
A|--33-3--|--33-3--|--33-3--|--33-3--|
D|--------|--------|--------|--------|
G|--------|--------|--------|--------|

yo stare contigo
E|1-----11|1-----11|1-----11|1-----11-1-33|
A|--33-3--|--33-3--|--55-5--|--33-3-------|
D|--------|--------|--------|-------------|
G|--------|--------|--------|-------------|


stan llegando lejos
E|-------|--33--|--1-1---|
A|33-33-3|------|--------|x2
D|-------|------|--------|
G|-------|------|--------|

y conviertase en bombas
E|-------|--33--|--1-1---|
A|55-55-5|------|--------|x2
D|-------|------|--------|
G|-------|------|--------|


(se re repite el CORO)
cuando ya se tarte

yo stare contigo...x2

una sola esperanza
E|1-----11-1-33|
A|--33-3-------|x
D|-------------|
G|-------------|

pala gente linda q no sabe lo q pasa en el mundo
AntOni SanDoval ...gracias KudaI





Calificar esta versión:
Aviso: Este fichero es trabajo propio de su transcriptor y representa su interpretación personal de la canción. El material contenido en esta página es para exclusivo uso privado, por lo que se prohibe su reproducción o retransmisión, así como su uso para fines comerciales.
Más versiones de Lejos De Aquí, Kudai
Lejos De Aqui
acordes
Lejos De Aqui (ver 2)
acordes
Lejos De Aqui (ver 3)
acordes
Lejos De Aquí
bajo
Descubre más canciones de Kudai