Déjame Gritar, Kudai (bajo)

Autor: Anónimo | 35811 visualizaciones



por que se fue la choquita
para mi que tenia un timbre bien adecuado al grupo
y era bien linda
la "m" es como callar la cuerda
Intro
E|----||-1-|-3--|
A|--0-||---|----|
D|----||---|----|
G|----||---|----|

recuerdos
E|----|-1-|---|-3--|
A|--0-|---|-3-|----|x2
D|----|---|---|----|
G|----|---|---|----|

solo quiero
E|--11111111-|-3333-|
A|-----------|------|
D|-----------|------|
G|-----------|------|

dejame gritar
E|-----------|-111-11-1-|----------|-333-33-3--|
A|--000-00-0-|----------|-333-33-3-|-----------|x2
D|-----------|----------|----------|-----------|
G|-----------|----------|----------|-----------|

que nada ya
E|--1111-|-0000-||-555-777-888-----5-|-10/0--|
A|-------|------||-------------777---|-------|
D|-------|------||-------------------|-------|
G|-------|------||-------------------|-------|

recuerdos
E|------------|-1-1-1m-m1-|----------|-3-3-3m-m3--|
A|--0-0-0m-m0-|-----------|-3-3--3-3-|------------|
D|------------|-----------|----------|------------|
G|------------|-----------|----------|------------|

sin nadie
E|------------|-1-1-1m-m1-|-----------|-3-3-3m-m3--|
A|--0-0-0m-m0-|-----------|-3-3-3m-m3-|------------|
D|------------|-----------|-----------|------------|
G|------------|-----------|-----------|------------|

solo quiero
E|--11111111-|-3333-|
A|-----------|------|
D|-----------|------|
G|-----------|------|

dejame gritar
E|-----------|-111-11-1-|----------|-333-33-3--|
A|--000-00-0-|----------|-333-33-3-|-----------|x2
D|-----------|----------|----------|-----------|
G|-----------|----------|----------|-----------|

que nada ya
E|--1111-|-0000-||-555-777-888-----5--|
A|-------|------||-------------777----|
D|-------|------||--------------------|
G|-------|------||--------------------|

durante el teclado
E|-----------|-111-11-1-|----------|-333-33-3--|
A|--000-00-0-|----------|-333-33-3-|-----------|x2
D|-----------|----------|----------|-----------|
G|-----------|----------|----------|-----------|

dejame gritar
E|-----------|-111-11-1-|----------|-333-33-3--|
A|--000-00-0-|----------|-333-33-3-|-----------|x2
D|-----------|----------|----------|-----------|
G|-----------|----------|----------|-----------|

que nada ya
E|--1111-|-0000-|
A|-------|------|
D|-------|------|
G|-------|------|

E|--555-777-888--------------------------------------|
A|--------------777----------------------------------|
D|------------------777-999-10-10-10-14-14-14--------|
G|--------------------------------------------16-17--|





Calificar esta versión:
Aviso: Este fichero es trabajo propio de su transcriptor y representa su interpretación personal de la canción. El material contenido en esta página es para exclusivo uso privado, por lo que se prohibe su reproducción o retransmisión, así como su uso para fines comerciales.
Más versiones de Déjame Gritar, Kudai
Dejame Gritar
acordes
Déjame Gritar
bajo
Descubre más canciones de Kudai