Todo Hombre Tiene Una Historia, Kraken (tablatura)

Autor: daniel24 | 40477 visualizaciones



INTRO
E--------------------------------------------------
B--------------------------------------------------
G---------------6-7-9-7-6---------------6-7-9-7-6--
D-9-11-12-11-9-------------9-11-12-11-9------------
A--------------------------------------------------
E--------------------------------------------------

RIFF 1:
E-------------------------
B-------------------------
G-----4--4-4-4--4--4-4-4--
D-----4--4-4-4--4--4-4-4--
A-5-4-2--2-2-2--2--2-2-2--
E-------------------------

RIFF 2:
E--------------------
B--------------------
G--------------------
D-9x-9x-9x-9---------
A-9x-9x-9x-9---------
E-7x-7x-7x-7-10-9-5--





Calificar esta versión:
Aviso: Este fichero es trabajo propio de su transcriptor y representa su interpretación personal de la canción. El material contenido en esta página es para exclusivo uso privado, por lo que se prohibe su reproducción o retransmisión, así como su uso para fines comerciales.
Más versiones de Todo Hombre Tiene Una Historia, Kraken
Todo Hombre Tiene Una Historia
acordes
Todo Hombre Tiene Una Historia
tablatura
Descubre más canciones de Kraken