Fragil Al Viento, Kraken (tablatura)

Autor: Raziel | 44775 visualizaciones




Esta es una grandiosa cancion de de kraken echenle ganas al tocarla por q de verdad vale la pena tocarla cualquier comentario lo hacen saber...

p-pull off
h-Hammer on
~-vibrato

INTRO

INTRO        DISTOR (ON)
e--10-8-5-6~~-8-10-8-5~~-6-8-6-3-1-0---5h6p-h6p-h6p-h6p
b-8----------------------------------3----------------
G-----------------------------------------------------
D-----------------------------------------------------
A-----------------------------------------------------
E-----------------------------------------------------

e-h6p-h6p-h6p-h6p~~---1-3-10-8-5-6~~-8-10-8-5~~-6-8-6-3
b-----------------------------------------------------
G-----------------------------------------------------
D-----------------------------------------------------
A-----------------------------------------------------
E-----------------------------------------------------

e-1-0---5h6p-h6p-h6p-h6p-h6p-h6p-h6p-h6p~~~~~~--------
b-----3-----------------------------------------------
G-----------------------------------------------------
D-----------------------------------------------------
A-----------------------------------------------------
E-----------------------------------------------------

D5           A#5
En suplicas de amor me he convertido

            D5            G5       A5
no encuentro una salida y me siento morir

D5         A#5
como poder vivir

     G5          A#5               A5             D5
sin descifrar,la intensidad de los designios,bajo mi signo

DISTOR (ON)
D5   D5                   A#5
mis huellas bajo el sol, hoy sienten frio

           D5           G5            A5
buscando una respuesta,me he perdido si

        G5      C5
y es que estoy aqui

        A5     D5
sin saber si huir

    G5          A#5           A5           D5
o enfrentar y sepultar en el olvido,lo ya vivido...

        CORO
  D5        D5
donde queda...

DISTOR (OFF)
  G5           A5        F5
todo aquello que vivi, donde quedara

G5              A#5       A5
cada palabra que sentí, donde quedan

DISTOR (ON)
      G5          C5
las pequeñas cosas simples

    G5           C5
si hoy me duele comprender

     A5          D5
el ayer que ya se fué

    G5         A#5      A5
y que jamas,regresará,haciendo distinto...

          D5
huella y camino


e-1-3-10-8-5-6~~-8-10-8-5~~-6-8-6-3-------------------
b-----------------------------------------------------
G-----------------------------------------------------
D-----------------------------------------------------
A-----------------------------------------------------
E-----------------------------------------------------

e-1-0---5h6p-h6p-h6p-h6p-h6p-h6p-h6p-h6p~~1-3---------
b-----3-----------------------------------------------
G-----------------------------------------------------
D-----------------------------------------------------
A-----------------------------------------------------
E-----------------------------------------------------

INTERLUDE
D5--A#5--G5--A#5--A5--D5

CORO

SOLO

DISTOR (OFF)

e--10-8-5-6~~-8-10-8-5~~-6-8-6-3-1-0---5-6-5-6-5-6-5-6
b-8----------------------------------3----------------
G-----------------------------------------------------
D-----------------------------------------------------
A-----------------------------------------------------
E-----------------------------------------------------

e-5-6-5-6-5-6-5-6~~~~~--------------------------------
b-----------------------------------------------------
G-----------------------------------------------------
D-----------------------------------------------------
A-----------------------------------------------------
E-----------------------------------------------------

FIN.



Que viva kraken sin duda una excelente banda y q viva el heavy metal colombiano

kk  kk  kkkkk      kkkk  kk  kk   kkkkkkk kkk     kk
kk kk   kk  kk    kk  kk kk kk    kk      kk k    kk
kkkk    kk kk     kk  kk kkkk     kkkkkk  kk  k   kk
kkkk    kkkk      kkkkkk kkkk     kk      kk   k  kk
kk kk   kk kk     kk  kk kk kk    kk      kk    k kk
kk  kk  kk  kk    kk  kk kk  kk   kkkkkkk kk     kkk

***Un saludo a mis compañero s de la banda pablo y peje***





Calificar esta versión:
Aviso: Este fichero es trabajo propio de su transcriptor y representa su interpretación personal de la canción. El material contenido en esta página es para exclusivo uso privado, por lo que se prohibe su reproducción o retransmisión, así como su uso para fines comerciales.
Más versiones de Fragil Al Viento, Kraken
Fragil Al Viento
acordes
Fragil Al Viento
tablatura
Descubre más canciones de Kraken