Y´all Want A Single, Korn (tablatura)

Autor: diego leon | 44689 visualizaciones

i all want single say fuck that...
-----------
-----------
-----------
1-0-------- x7
1-0--------
1-0--------

boom.boom,boom,boom

-------------------
-------------------
-------------------
1-0-3-3-2-2-0-1---- x4
1-0-3-3-2-2-0-1----
1-0-3-3-2-2-0-1----

-------------------
-------------------
-------------------
0-0-0--0-1-0-------x4
0-0-0--0-1-0-------
0-0-0--0-1-0-------

-------------------
-------------------
-------------------
0-1-3-6-5-6-5-0----
0-1-3-6-5-6-5-0----
0-1-3-6-5-6-5-0----

-------------------
-------------------
-------------------
0-0-0--0-1-0-------x4
0-0-0--0-1-0-------
0-0-0--0-1-0-------

coro:

-------------------
-------------------
-------------------
1-0-3-3-2-2-0-1---- x4
1-0-3-3-2-2-0-1----
1-0-3-3-2-2-0-1----


Comentarios del colaborador: umm esta cancion me la enseño un amigo de U.S.A

Calificar esta versión:
Aviso: Este fichero es trabajo propio de su transcriptor y representa su interpretación personal de la canción. El material contenido en esta página es para exclusivo uso privado, por lo que se prohibe su reproducción o retransmisión, así como su uso para fines comerciales.
Más versiones de Y´all Want A Single, Korn
Y´all Want A Single
tablatura
Y´all Want A Single
bajo
Descubre más canciones de Korn