Guacamole, Kevin Johansen (tablatura)

Autor: Anónimo | 30723 visualizaciones



-Intro- 
e-------------------------------------------| 
B-----3-----------------------3------------| 
G-----------2h-4--2-----2-----------------| 
D--------4-------------4-------------------| 
A-------------------------------------------| 
E-------------------------------------------| 
Repeat it 

e---------------------------2---------| 
B---2---------------------------------| 
G---------2h-4-2-----2--------------| 
D------5------------5----------------| 
A-------------------------------------| 
E-------------------------------------| 

e---------------------------------| 
B----4-----------------------4---| 
G-----------4h-6-4-----4--------| 
D-------7-------------7----------| 
A---------------------------------| 
E---------------------------------| 

e--------------------------------| 
B----4------------------------9-| 
G-----------4h-6-4-----4---9--| 
D-------7-------------7---------| 
A--------------------------------| 
E--------------------------------| 

E Esus4? Bm7 (vamos a llamarle 

Fuente original: LaCuerda
Colaborador original: maggiep [maggiepizarro@redesdelsur.com]





Calificar esta versión:
Aviso: Este fichero es trabajo propio de su transcriptor y representa su interpretación personal de la canción. El material contenido en esta página es para exclusivo uso privado, por lo que se prohibe su reproducción o retransmisión, así como su uso para fines comerciales.
Más versiones de Guacamole, Kevin Johansen
Guacamole
acordes
Guacamole
tablatura
Descubre más canciones de Kevin Johansen