El Círculo, Kevin Johansen (tablatura)

Autor: Anónimo | 43258 visualizaciones



Modo 1

..A.................A....................E7sus
-5------------------5--------------------0---------------------
---------------------------------------------------------------
---------------------------------------------------------------
---6--6------7--6-------6--6------7--6-------7--6---7------6---
---5----5----5--5-------5-----5---5--5-------0--0---0--5---0---
---------------------------------------------------------------
<<<<<<A cués ta te   y      duér me te       pa ra des per tar


.E7 sus
-0------------------------
--------------------------
--------------------------
---6----7---------7--6----
---0----0---5-----0--0----
--------------------------
<<<son rien te y fe liz.

Modo 1

Des piér ta te, le ván ta te pa ra can sar te

y vol ver a dor mir.


Modo 2

.D/A................D/A
--------------------------------------------
--------------------------------------------
-0------------------0-----------------------
--------------------------------------------
----3--3--3---3--3----3---3---3---3---3-----
----2--2--5---4--2----2---2---5---4---2-----
<<<<<< El cír cu lo       da la vuel ta



A6/E...............A6/E
------------------------------------------
0------------------0----------------------
------------------------------------------
--2--2--2---2--2----2--2--2----2---2------
--2--2--5---3--2----2--2--5----3---2------
--2--2--2---2--2----2--2--2----2---2------
<<<y al ter mi nar, la vuel ve a dar...


Modo 3

E6................E6.................A*
0-----------------0----------------------------------------
-------------------------------------0---------------------
-----------------------------------------------------------
--1---1--1--1--1----1---1--1--1--1------2--2--2--2--2------
--0---0--3--2--0----0---0--3--2--0------2--2--3--2--0------
--0---0--0--0--0----0---0--0--0--0------0--0--0--0--0------



E6
0------------------
-------------------
-------------------
--1--1--1--1--1----
--0--0--3--3--2----
--0--0--0--0--0----


Modo 1

Dis cúl pa me, per dó na me pa ra que pue das

Ofen der te Otra vez.

Modo 1

E nó ja te, cas tí ga me pa ra que pue das

Que rer me des pués

Modo 2


El círculo da la vuelta

Y al terminar, la vuelve a dar


Modo 4

E6................E6...................F#m
0-----------------0----------------------2----------------
----------------------------------------------------------
----------------------------------------------------------
--1---1--1--1--1----1---1--1--1--1---------2--2--2--2--2--
--0---0--3--2--0----0---0--3--2--0---------2--2--2--5--2--
--0---0--0--0--0----0---0--0--0--0---------2--2--2--2--2--
<<<Yo te ol vi dé  No me ol vi do más…


E6
0------------------
-------------------
-------------------
--1--1--1--1--1----
--0--0--3--3--2----
--0--0--0--0--0----


Modo 1

Entré ga te y rín de te para que puedas

Escaparte después

Modo 1

Libé ra te y suél ta te para que puedas
Quereme otra vez

Modo 2

El círculo da la vuelta

y al terminar, la vuelve a dar...



E6................E6...................F#m
0-----------------0----------------------2----------------
----------------------------------------------------------
----------------------------------------------------------
--1---1--1--1--1----1---1--1--1--1---------2--2--2--2--2--
--0---0--3--2--0----0---0--3--2--0---------2--2--2--5--2--
--0---0--0--0--0----0---0--0--0--0---------2--2--2--2--2--
<<<<<<Te dí to do Y ya no doy mas…



F#m
2---------------------
----------------------
-----------------2--0-
-2--2--2--2--2--------
-2--2--2--5--2--------
-2--2--2--2--2--------


Modo 2

Hoy te quiero, mañana también

Pasado no, el año que viene

E6..................E6.................A
0-------------------0----------------------------------------
-------------------------------------0---------------------
-----------------------------------------------------------
--1---1--1---1---1----1---1--1--1--1------2--2--2--2--2------
--0---0--3---2---0----0---0--3--2--0------2--2--3--2--0------
--0---0--0---0---0----0---0--0--0--0------0--0--0--0--0------
<<<<creo que siem pre     te que rré…


0------------------------------------------V-------
--------------------0-----------------0----V-------
----------------------11--------------11---V-------
---1---1---4--6--9------9-------------9----V-----
---0---2---3--5--9-------10-----------10---V-----
----------------------------11-12------9---V-----
                                           V
                                          RASGUEO

Acordes
A.........577655
E7sus.....077700
D/A.......000232
A6/E......002222
E6........002120
A*........002220
F#m.......244222





Calificar esta versión:
Aviso: Este fichero es trabajo propio de su transcriptor y representa su interpretación personal de la canción. El material contenido en esta página es para exclusivo uso privado, por lo que se prohibe su reproducción o retransmisión, así como su uso para fines comerciales.
Más versiones de El Círculo, Kevin Johansen
El Circulo
acordes
El Circulo (ver 2)
acordes
El Círculo
tablatura
Descubre más canciones de Kevin Johansen