Anoche Soñé Contigo, Kevin Johansen (tablatura)

Autor: Anónimo | 36262 visualizaciones



Capodastro o cejilla en el 4to traste

Intro:

E--0---0---0---0---0---0---0----------------------------------------
B--5---0---3---5---0---3---3----------------------------------------
G--0---4---5---0---4---5---5----------------------------------------
D--4---4---4---4---4---4---4----------------------------------------
A--5---5---5---5---5---5---0----------------------------------------
E--0---0---0---0---0---0---5----------------------------------------


Descripción de notas y su movimiento. (hace un juego con el meñique)

   SOL-SOL* MIm MIm* LAm7* LAm7** LAm7/FA# (*) SIm  MI7* MI7
E-----3--3-----0---0----0-----0-------------2-----2---2----0----0----------
B-----3--0-----0---3----1-----3-------------3-----1---3----3----0----------
G-----0--0-----0---0----0-----0-------------0-----0---4----1----1----------
D-----0--0-----2---2----2-----2-------------0-----0---4----0----0----------
A-----2--2-----2---2----0-----0-------------0-----0---2----2----2----------
E-----3--3-----0---0----0-----0-------------2-----2---2----0----0----------

   LAm7* LAm7** LAm7/FA# [*] Puente para el coro
E---0-----0---------2--------2------------------------
B---1-----3---------3--------1------------------------
G---0-----0---------0--------0------------------------
D---2-----2---------0--------0------------------------
A---0-----0---------0--------0---0--2--3--5-----------
E---0-----0---------2--------2------------------------

SOL(*)
anoche soñé contigo
MIm (7)
y no estaba durmiendo
LAm7*(**)
todo lo contrario
LAm7/FA# (*)
estaba bien despierto

SIm
soñé que no hacía falta
MI7(*)
hacer ningún esfuerzo
LAm7*(**)
para que te entregaras
LAm7/FA# (*)
en ti yo estaba inmerso

Puente para el coro.
E---------------------------
B---------------------------
G---------------------------
D---------------------------
A------0--2--3--5-----------
E---------------------------

    DO
que lindo que es soñar

soñar no cuesta nada
  SOL(*)
soñar y nada mas
    SOL(*)
con los ojos abiertos
    MIm (*)
que lindo que es soñar
  LA           DO
y no te cuesta nada
        SOL(*)
mas que tiempo


Interludio: Intro

SOL(*)
Que hacer con tanta angustia
MIm (7)
por cosas no resueltas
LAm7*(**)
por toda esta energía
LAm7/FA# (*)
casi siempre mal puesta


SIm
Si pudiera olvidarme
MI7 (*)
por siempre de mí mismo
LAm7 (*)
habrías de encontrarme
LAm7/FA#
allá en tu dulce abismo

Puente para el coro.
E---------------------------
B---------------------------
G---------------------------
D---------------------------
A------0--2--3--5-----------
E---------------------------

(CORO BIS)

Puente para el coro 2.
E---------------------------
B---------------------------
G---------------------------
D---------------------------
A-----0--1--2---------------
E--3------------------------

Interludio musical: SOL(*)-MIm(7)-Lam7*(**)-Lam7/fa#(*)
(mis sueños son...sigue melodía con silbido.)

SIm
soñé que no hacía falta
MI7(*)
hacer ningún esfuerzo
LAm7*(**)
para que te entregaras
LAm7/FA# (*)
en ti yo estaba inmerso

Puente para el coro.
E---------------------------
B---------------------------
G---------------------------
D---------------------------
A------0--2--3--5-----------
E---------------------------

    DO
que lindo que es soñar

soñar no cuesta nada
   SOL(*)
soñar y nada mas
    SOL(*)
con los ojos abiertos
    MIm (*)
que lindo que es soñar
  LA           DO
y no te cuesta nada
        SOL(*)
mas que tiempo

Puente para el coro 2.
E---------------------------
B---------------------------
G---------------------------
D---------------------------
A-----0--1--2---------------
E--3------------------------

Coro:
que lindo que es soñar
soñar no cuesta nada
soñar y nada mas
con los ojos abiertos
que lindo que es soñar
y no te cuesta nada
más que tiempo,
nada más que tiempo.

Interludio: intro ... (pa’ calderón)

  SOL*ol(*)               SOL*
Fin: Anoche soñé contigo.


Nota: Sigan la canción con la música.
Está muy bien sacada, debería sonar igual, solo paciencia.
Y otra cosa, aclaro que esto(*)significa que es la variante del acorde.
Saludos desde Chile.





Calificar esta versión:
Aviso: Este fichero es trabajo propio de su transcriptor y representa su interpretación personal de la canción. El material contenido en esta página es para exclusivo uso privado, por lo que se prohibe su reproducción o retransmisión, así como su uso para fines comerciales.
Más versiones de Anoche Soñé Contigo, Kevin Johansen
Anoche Soñé Contigo
acordes
Anoche Soñé Contigo
tablatura
Descubre más canciones de Kevin Johansen