Miénteme, Ketama (tablatura)

Autor: Anónimo | 28996 visualizaciones

weno espero k les guste ummm.. los solos no estan facil pero kon praktika salen 
por cierto en las notas septimas tendras k hacer el rasgueo arpegiado.. k se u
a mucho en este estilo (flamenko)..
si hay algun error k noten (aunke no lo kreo) eskribanme.. grunge_16@hot... xus!

G#/Ab:  43111x
Abmaj7: xx1113
Ab:     688766
Gm:     355333
G#:     466544
G#7:    464544       (tokenla tal komo esta aki..)
G7:     356433
Cm7:    8 10 8888
C#7:    x46464
C7:     x35353
Fm:     133111
D#:     x68886
                aki tienes k deslizar los dedos rapido!

  G#/Ab                      Ab
|-4/6/8-8-8-8/6/4-6-8h9-6-4-|-6/8/10-10-10-10/8/6-8-10h11-8-6-|
|---------------------------|---------------------------------|
|-1/3/5-5-5-5/3/1-3-5h6-3-1-|-3/5/ 7--7--7--7/5/3-5--7h8 -5-3-|
|---------------------------|---------------------------------|
|---------------------------|---------------------------------|
|---------------------------|---------------------------------|

  Gm                         C7
|-3/4/6-6-6-6/4/3-4-6h7-4-3-|-3/4/1-1-1-1/4-4/3---------------|
|---------------------------|------------------6-5-4----------|
|-0/1/3-3-3-3/1/0-1-3h5-1-0-|-0/1/3-3-3-3/1-1/0-----6-5-------|
|---------------------------|------------------3-2-1----------|
|---------------------------|-----------------------4-3-------|
|---------------------------|---------------------------------|

 G#/Ab     Abmaj7            Gm
  Me perdi,  bajo este delirio me perdi­,
 G#/Ab   Abmaj7  Ab         Gm       C7
  y busque un   Dios para creer en ti.
 G#                         Gm        Cm
  Vivire, si este es mi destino vivire,
                  Fm                   G#7
  porque a tu mentira ya me acostumbre
                      G7
  mientras me robas el alma.

CORO:
 G#                        Ab
  Mientes como nadie cuando me dices te quiero
 Gm                     C#7          C7
  mientes con ternura, que locura, que deseo,
 G#
  mientes como nadie.
 Ab
  No hay nada que olvidar
  Gm                      C#7            C7
  ni amor que conservar, tu amor es un veneno.

 G#                        Ab
  Mientes como nadie cuando me dices te quiero (oye te quiero..)
 Gm                     C#7          C7
  mientes con ternura, que locura, que deseo,
 G#                        Fm           G7
  Mientes como nadie cuando me dices te quierooo...

 G#/Ab - Ab - Gm - C7

 G#/Ab     Abmaj7            Gm
  Jugare a este juego al que todo aposte,
 G#/Ab   Abmaj7  Ab         Gm       C7
  me da igual, mi condena es vivir asi,
 G#                         Gm              Cm
  mienteme,ya no tengo nada,nada que perder.
                   Fm                 G#7                 G7
  Tarde o temprano,siempre acabare en el infierno de tus labios.

CORO...

Solo:
  Cm7                D#       G#        G7
|------------8---------------|-----------------------------|
|-------4-6-8-6-4-------4----|---------1341343-1-0---------|
|--5-5-6-----------------6-5-|-4564565------------1-0------|
|-5-6----------------55------|-----------------------5-3-5-|
|------------------88--------|-----------------------------|
|----------------------------|-----------------------------|

  Cm7               D#              G#                  G7
|----------------------------|------------------------------1-0~------|
|---------1-2-4-66-8-6-------|--4-6-8-6-4--1/2/1-1/2/1---124---1------|
|----1-3-4------------6------|-6---------6--------------4-------4-1-0-|
|-3-5------------------------|----------------------------------------|
|----------------------------|----------------------------------------|
|----------------------------|----------------------------------------|

            D#        Ab               Cm7 C7
  Y en el olvido tantas noches junto a ti,
            G#         Gm              Fm
  solo un recuerdo todo aquello que te di­,
  Ab                      Gm
  amargos son tus besos y me pierdo tus caricias,
  Gm7                    C7
  se las lleva el viento tantas pasiones vividas.


weno por fin termine.. esta kompleta para k token toda.. bye!
Calificar esta versión:
Aviso: Este fichero es trabajo propio de su transcriptor y representa su interpretación personal de la canción. El material contenido en esta página es para exclusivo uso privado, por lo que se prohibe su reproducción o retransmisión, así como su uso para fines comerciales.
Más versiones de Miénteme, Ketama
Miénteme
acordes
Miénteme
tablatura
Descubre más canciones de Ketama