Sueño Que Va, Kameleba (tablatura)

Autor: Anónimo | 27089 visualizaciones

INTRO

  C#m    (C#m7)   F#m     A              (G#m7) C#m
e|------------------------------------------------------------------------
B|------------------------------5--------5--------------------------------
G|------------------------4--6-----4--6-----6--4--6-----------------------
D|------------------------------------------------------------------------
A|------------------------------------------------------------------------
E|------------------------------------------------------------------------

  C#m          (C#m7)   F#m      A                  B  C#m G#m B   F#m
e|------------------------------------------------------9-----------------
B|--------12-12----------------------10--12-----10--12------9--12---------
G|-11/13---------11--11/13--11----11---------11--------------------11-----
D|------------------------------------------------------------------------
A|------------------------------------------------------------------------
E|------------------------------------------------------------------------


ESTRIBILLO:

        C#m           A
Brother and sisters
          B           C#m
don't waken me now
Brothers and sisters
Brothers and sisters
Brothers and sisters
don't waken me now

  C#m                            A       B
e|---------------------------------------------
B|---------9------------9----9h10/9----10-9----
G|----9-11---9-----9-11---11--------9-------8--    X2
D|-11-----------11-----------------------------
A|---------------------------------------------
E|---------------------------------------------


ESTRIBILLO:

Solo
  C#m                          A        B        C#m
e|------------------------------------------------------------------------
B|-----9-----------9-------------7h9--7---7-------------------------------
G|---9---9-------9---9--8-8-8h9---------9---8--8--8h9/8--------8h9/8------
D|-9-------11--9----------------------------------------9-9h11------------
A|------------------------------------------------------------------------
E|------------------------------------------------------------------------

           A                 B
e|---------------------------------
B|---------------------------------
G|----------------9-8h9------9-8--
D|--9-9h11---9h11-------9-11------
A|-------------------------------
E|------------------------------


  C#m                          F#m
e|-------9------------9------
B|--9-12---12----9-12---12---
G|---------------------------
D|---------------------------
A|--------------------------
E|--------------------------

C#m                           F#m-G#m
e|-------9------------9------
B|--9-12---12----9-12---12---
G|---------------------------
D|---------------------------
A|--------------------------



es lo q hay...
Calificar esta versión:
Aviso: Este fichero es trabajo propio de su transcriptor y representa su interpretación personal de la canción. El material contenido en esta página es para exclusivo uso privado, por lo que se prohibe su reproducción o retransmisión, así como su uso para fines comerciales.
Más versiones de Sueño Que Va, Kameleba
Sueño Que Va
acordes
Sueño Que Va
tablatura
Descubre más canciones de Kameleba