Tocando Fondo, Kalimba (acordes) (ver 3)

Autor: saflog | 25599 visualizaciones

dososfasossolsos


E|-----------|-----------|----------------------|
A|-----------|-----------|----------------------|
D|--3--------|--6-----6--|----------------------|
G|-----------|-----------|------8-10------6-8---|
B|----1-2----|----1-2----|--7/9------8--7-----7-|
e|--4-----4--|--4-----4--|--6/8------9--6-----6-|


 Do#
Pasa la angustia
    Sol#
tan cerca de mí
 Fa#       Do#     Sol#
cuando de aquí te alejas.
Do#                Sol#
Sé que el insomnio sigue por ahí,
     Fa#        Do#     Sol#
esperando que intente dormir.
              Fa#     Do#
Me he quedado solo y así,
      Fa#     Sol#
no planeaba vivir,
              Fa#        Do#
me he quedado solo y sin ti.
        Fa#     Sol#
Es tan fácil volver-se loco.

Do#     Do#*
Estoy tocando fondo,
Sol#
me niego estar sin ti,
   Fa#        Do#
te tengo que recuperar
 Fa#             Sol#
o de una vez dejarte ir.
Do#     Do#*
Estoy tocando fondo,
Sol#
me duele hablar de ti.
     Fa#        Do#
No quiero disimular
    Fa#           Sol#
el resto de mi vida, oh, oh, oh.

E|-----------------------------------------------|
A|-----------------------------------------------|
D|-----------------------------------------------|
G|----8-10-----10-11----------8-10---------------|
B|-7/9----9---9-----9?--9/11-9----9---7----------|
e|-6/8----8---9-----9?--9/11-8----8---6-6-4/4-2--|


Vuelve la angustia
a hablarme de ti
cuando de aquí te alejas.
Sé que el insomnio
sigue por ahí,
esperando que intente dormir.
Me he quedado solo y así
no planeaba vivir.
Me he quedado solo y sin tiií,
es tan fácil volverse loco.

Coro...

   Do#     DO#*
...Estoy tocando fondo,
Sol#
me duele hablar de ti.
       Fa#       Do#
no quiero disimular
       Fa#
el resto de mi vida
Sol#               Do#    Sol#
que no me importas más, ah, ah, ah.
  Do#       Sol#           Fa#
Uuuuuuuuu, naarnarnarnarna.
  Sol#
uuuuuu, narnarnarna.

Do#     Do#*
Estoy tocando fondo,
Sol#
me niego estar sin ti,
   Fa#        Do#
te tengo que recuperar, oho,
 Fa#             Sol#
o de una vez dejarte ir, oh.

Do#      Do#*
Estoy tocando fondo,
Sol#
me duele hablar de ti,
     Fa#         Do#
no quiero disimular
     Fa#          Sol#
el resto de mi vida, oh oh oh...


E|-----------------------------------------------|
A|-----------------------------------------------|
D|-----------------------------------------------|
G|----8-10-----10-11----------8-10------6-8------|
B|-7/9----9---9-----9?--9/11-9----9---7----------|
e|-6/8----8---9-----9?--9/11-8----8---6-----4----|





Calificar esta versión:
Aviso: Este fichero es trabajo propio de su transcriptor y representa su interpretación personal de la canción. El material contenido en esta página es para exclusivo uso privado, por lo que se prohibe su reproducción o retransmisión, así como su uso para fines comerciales.
Más versiones de Tocando Fondo, Kalimba
Tocando Fondo
acordes
Tocando Fondo (ver 2)
acordes
Tocando Fondo (ver 3)
acordes
Tocando Fondo (ver 4)
acordes
Tocando Fondo
tablatura
Descubre más canciones de Kalimba