La Nota Más Linda, Kaleth Morales (tablatura)

Autor: Anónimo | 18625 visualizaciones



aqui les va amigos de colombia y del mundo una de las mejores canciones de
kaleth morales la nota mas linda.

por DANIEL STEVENS RODRIGUEZ RIVAS 8-02 2009 pasarinho desde leticia
amazonas colombia para mi nota mas linda esta composicion es por ti y
para ti con mucho amor y sinceridad  DANNA 7-02 E.N.S no me alcanzaria
la vida para describir la grandeza de mi amor por ti

                          LA NOTA MAS LINDA
                           KALETH MORALES
VERSO

llego la nota mas linda a mi cancion la muhachita que quiero de verdad
la que una noche mi novia se volvio que se volvio el alma y mi vida
sin pensar.
que con sus besos de mis sueños se apropio con su ternura
y su figura angelical la que me hizo olvidar tanto dolor la
inspiracion de un poeta en su cantar.
e--------------------/
B-----------0-3-2-0--/
G-2-2-2-2-2---------2/  BIS
D--------------------/
A--------------------/
E--------------------/

e----------------------/------------------------
B-2-2-2-2-2-2-2-3-0-0-0/-2-2-2-2-2-2-2-3-3-3-2-0
G----------------------/------------------------
D----------------------/------------------------
A----------------------/------------------------
E----------------------/------------------------

estribillo

creo que ya encontre la muchachita de mis sueños la que orgullosamente
me tiene enamorado. ahora es de verdad y con razon  que estoy contento
por que ya encontre la muchachita que  he soñadoo.

e-0-0-0-0--------------------/-----------------------------0
B---------3-3-3-3-2----------/-3-3-3-3-2-2-2-2-2-------2-0--
G-------------------2-2-2-3-0/--------------------2-2-------
D----------------------------/------------------------------
A----------------------------/------------------------------
E----------------------------/------------------------------


CORO

ya no puedo vivir sinti te amo y nunca te voy a dejar que por siempre y
para siempre tu seras en mi vida lo mas lindo.te juro me siento feliz y
a todo el mundo le voy a gritar que mi alma solo pertenece a ti gracias
por estar con migo mi vida.

e-------------------------------------------------------------------------
B---2-0-----0-2-2-2-2-2-2-2-2-2-2-3----2-2-2-2-2-2-2-2-2-3-3-2-2-2-2-2--2-0
G-2-----2-2-------------------------2---------------------------------2
D---------------------------------------------------------------------
A---------------------------------------------------------------------
E---------------------------------------------------------------------

EN EL RESTO DE LA CANCION VA LO MISMO CLARO QUE CAMBIA LA LETRA DE LA
CANCION.

Y ESTO PARA EL AMOR DE MI VIDA DANNA Y PARA TODA LA GENTE MARAVILLOSA
DE LETICIA EN ESPECIAL A LAS MUJERES Y POR SUPUESTO A THE PEOPLE OF
LACUERDA.NET

POR FAVOR CALIFIQUEN ESTA TABLATURa,GRACIAS.





Calificar esta versión:
Aviso: Este fichero es trabajo propio de su transcriptor y representa su interpretación personal de la canción. El material contenido en esta página es para exclusivo uso privado, por lo que se prohibe su reproducción o retransmisión, así como su uso para fines comerciales.
Más versiones de La Nota Más Linda, Kaleth Morales
La Nota Mas Linda
acordes
La Nota Más Linda
tablatura
Descubre más canciones de Kaleth Morales