Ruby, Kaiser Chief (tablatura)

Autor: simbiottitan | 30250 visualizaciones

Intro - Crunchy distortion 
Eb------------| 
Bb--12-12--12-| 
Gb--14-13--13-| 
Db--14-14--14-| 
Ab------------| 
Eb------------| X4 

Eb---------------------------------------------------------------| 
Bb---------------------------------------------------------------| 
Gb---------------------------------------------------------------| 
Db---------------------------------------------------------------| 
Ab--2-2-5-------s7-----2-2-5-------s7-7-5-5-4-4-2-2--------------| 
Eb--------2-2-5--------------2-2-5-------------------------------| 

Eb----------------------------------------------------------------| 
Bb----------------------------------------------------------------| 
Gb----------------------------------------------------------------| 
Db----------------------------------------------------------------| 
Ab--2-2-5-------s7-----2-2-5-------s7-7-5-5-4-4-2-2---------------| 
Eb--------2-2-5--------------2-2-5------------------5-5-4-4-2-2-0-| 

Verse 1 - cambia a sonido limpio 
Eb--2---------2---------4---------7------------------------------| 
Bb--3---------2---------5---------9------------------------------| 
Gb--4---------2---------6---------9------------------------------| 
Db--4---------4---------6---------9------------------------------| 
Ab--2---------4---------4---------7------------------------------| 
Eb------------2--------------------------------------------------| 

Eb--2---------2---------4---------7------------------------------| 
Bb--3---------2---------5---------9------------------------------| 
Gb--4---------2---------6---------9------------------------------| 
Db--4---------4---------6---------9------------------------------| 
Ab--2---------4---------4---------7------------------------------| 
Eb------------2--------------------------------------------------| 

Chorus 1 - regresa a distortion 
Eb---------------------| 
Bb---------------------| 
Gb---------------------| 
Db---------------------| 
Ab--2-2-5-4---------s7-| 
Eb----------2-2-5-4----| X2 

Eb------------------------------------------------------| 
Bb------------------------------------------------------| 
Gb------------------------------------------------------| 
Db------------------------------------------------------| 
Ab--2-2-5-4---------s7-7-5-5-4-4-2-2-2-2-5-4---------s7-| 
Eb----------2-2-5-4--------------------------2-2-5-4----| 

Verse 2 - como el 1 pero con lo sig empezando por las palabras "let the clocks"
Eb------------------------------------------| 
Bb------------------------------------------| 
Gb----------------------14p13----14p13------| 
Db--11-12s14------------------14------14----| 
Ab------------------------------------------| 
Eb------------------------------------------| 

Chorus 2 - como el uno solo que al final añada esto
Eb----------------| 
Bb----------------| 
Gb----------------| 
Db----------------| 
Ab--7-8-9---------| 
Eb----------------| 

Bridge gtr 1 - sonido limpio
Eb--9---------10--------7-----7-8--9--| 
Bb--10--------10--------7-----9-10-10-| 
Gb--11--------13--------7-----9-10-11-| 
Db--11--------12--------9-----9-10-11-| 
Ab--9---------12--------9-----7-8--9--| 
Eb------------10--------7-------------| X2 

gtr 2 - Crunchy distortion 
Eb----------------------------------------| 
Bb----------------------------------------| 
Gb----------------------------14p13-16p14-| 
Db----------------------------------------| 
Ab----------------------------------------| 
Eb----------------------------------------| 

Solo gtr 1 - como puente
gtr 2 - Crunchy distortion 
Eb------------------------------------------------------------------------| 
Bb------------------------------------------------------------------------| 
Gb------------------------------------------------------------------------| 
Db--11p9-11-11p9-11--s7-9-9s11-9-7----s7-9-9s11-9-7---7-9-9s11-9-9-9-10---| 
Ab---------------------------------9----------------9---------------------| 
Eb------------------------------------------------------------------------| 

w/pitch shifter up 1 octave 
Eb------------------------------------------------------------------------| 
Bb------------------------------------------------------------------------| 
Gb------------------------------------------------------------------------| 
Db--11p9-11-11p9-11--s7-9-9s11-9-7----s7-9-9s11-9-7---7-9-9s11-9-9-9-10---| 
Ab---------------------------------9----------------9---------------------| 
Eb------------------------------------------------------------------------| 

coro final
Eb---------------------| 
Bb---------------------| 
Gb---------------------| 
Db---------------------| 
Ab--2-2-5-4---------s7-| 
Eb----------2-2-5-4----| X2 

Eb---------------------------------| 
Bb---------------------------------| 
Gb---------------------------------| 
Db---------------------------------| 
Ab--2-2-5-4---------s7-7-5-5-4-4-2-| 
Eb----------2-2-5-4----------------| X2 

Eb------------------------------------------| 
Bb------------------------------------------| 
Gb------------------------------------------| 
Db------------------------------------------| 
Ab--2-2-5-------s7-----2-2-5-------s7-7-8-9-| 
Eb--------2-2-5--------------2-2-5----------| 

Comentarios del colaborador: los acordes.com

Calificar esta versión:
Aviso: Este fichero es trabajo propio de su transcriptor y representa su interpretación personal de la canción. El material contenido en esta página es para exclusivo uso privado, por lo que se prohibe su reproducción o retransmisión, así como su uso para fines comerciales.
Más versiones de Ruby, Kaiser Chief
Ruby
acordes
Ruby
tablatura
Descubre más canciones de Kaiser Chief