El No Pereció, Julissa (tablatura)

Autor: Anónimo | 33501 visualizaciones



Esto es una cancion que canta julissa con uncion tropical, en merengue..

INTRO:

E||-------------------------------------------|
A||-------------------------------------------|
D||-------------------------------------------|
G||-------------------------------------------|
B||-10---------10---10------------10----------|
E||----7s9--10---------9-10-12-10-------------|


E||-------------------------------------------|
A||-------------------------------------------|
D||-------------------------------------------|
G||-------------------------------------------|
B||-10---------10--5-5s7--5-7-8--7-5-7--5-3-5-|
E||----7s9--10--------------------------------|

LUEGO VIENE LOS INSTRUMENTOS DE VIENTO


D                        Bm                G
Si tanto te amó, porqué ahora le das la espalda.
     D              Bm               G
Sufrió tu dolor, llevó sobre El tus cargas.
   Em                D                   A
Y aunque murió te quiero decir que El vive.
   G              D         G                           A
Y junto con El resucitará todo aquel que al Calvario mire.

CORO:

     D
El no pereció, dejó la tumba vacía
     Bm
El no pereció, resucitó al tercer día
    G               D
El se levantó, la muerte venció
   G               A
Nada detenerlo podría.

Vuelve al inicio, y luego el coro.

Al final sube a E

E||---------------------------------------------|
A||---------------------------------------------|
D||---------------------------------------------|
G||---------------------------------------------|
B||-12----------12---12------------12-----------|
E||----9s11--12---------11-12-14-12-------------|


E||---------------------------------------------|
A||---------------------------------------------|
D||---------------------------------------------|
G||---------------------------------------------|
B||-12----------12--7-7s9--7-9-10--9-7-9--7-5-7-|
E||----9s11--12---------------------------------|


Por: Christian yumbato

Pucallpa-Perú





Calificar esta versión:
Aviso: Este fichero es trabajo propio de su transcriptor y representa su interpretación personal de la canción. El material contenido en esta página es para exclusivo uso privado, por lo que se prohibe su reproducción o retransmisión, así como su uso para fines comerciales.
Más versiones de El No Pereció, Julissa
El No Pereció
acordes
El No Pereció
tablatura
El No Pereció
teclado
Descubre más canciones de Julissa