Viviré Para Alabarte, Julio Melgar (tablatura)

Autor: Anónimo | 43402 visualizaciones

amigos aqui les dejo otra colaboracion. ELVIS ESTRADA


EL BEND SOLO ES 1/2 ARIBA
en la ultima parte donde esta  12p11 es un adorno propio.
pero suena bien al momento de hacerlo en el tiempo correcto..

dudas, comentarios o sugerencias pueden escribirme a:
elvisound_16@hotmail.com

  A               B      C#m                 A
e|--------------------------|------------------------------|---
B|----------------12--------|-------------------13b(~)-----|---
G|-----9-11-11s13----13-9-9-|-----9-11-11s13-11------9p8-9-|---
D|-5s9----------------------|-5s9--------------------------|---
A|--------------------------|------------------------------|---
E|--------------------------|------------------------------|---

   A              B          C#m           A                 C#m
e|--------------------------|--------------14-12-11--12p11-------|--
B|----------------12-14-12--|-17-16-14-12------------------12s14-|--
G|-----9-11-11s13-----------|------------------------------------|--
D|-5s9----------------------|------------------------------------|--
A|--------------------------|------------------------------------|--
E|--------------------------|------------------------------------|--

aqui solo esta en pequeños rasgos..
no esta bien explicado como se hace...

S= slide
(Tecnica de deslisar el dedo el la cuerda de una nota a otra)

B= bend
(Tecnica de subir la cuerda, haciendo sonar 1/2 o 1 tono mas)

p= pull offs
(Tecnica de jalar la cuerda)

(~) = vibracion de la cuerda
Calificar esta versión:
Aviso: Este fichero es trabajo propio de su transcriptor y representa su interpretación personal de la canción. El material contenido en esta página es para exclusivo uso privado, por lo que se prohibe su reproducción o retransmisión, así como su uso para fines comerciales.
Más versiones de Viviré Para Alabarte, Julio Melgar
Viviré Para Alabarte
acordes
Viviré Para Alabarte
tablatura
Descubre más canciones de Julio Melgar