Soy Un Altar, Julio Melgar (tablatura)

Autor: Anónimo | 21637 visualizaciones

VERSO 1
--G----------Dsus------- Em----------Dsus-------- C------------G------------
E------------------3P2-2-------------------3--------------------------------
B-------0--------3---------------3-------3---3------------1----------3-------
G-----0---0----2---------------0---0---2-------2--------0---0------0---0-----
D---0--------0-------------0h2-------0--------------0h2----------0-------0---
A------------------------2------------------------3--------------------------
E-3------------------------------------------------------------3-------------

---E/D-------Dsus--------D--------
E------------------3-----------2--
B--------3-------3---3-------3----
G------0---0---2-------2---2------
D----2-------0-----------0--------
A--0------------------------------
E---------------------------------

VERSO 2
--G----------D-------------Em-----------D-------------C-----------
E------------------2h3------------------------2h3-----------------
B-------0--------3-----3-----------3--------3-----3-----------1---
G-----0---0----2---------2-------0---0----2---------2-------0---0-
D---0--------0---------------0h2--------0---------------0h2-------
A--------------------------2--------------------------3-----------
E-3---------------------------------------------------------------

--G------------E/D----------Dsus---------D-----------
E---------------------------------3------------2-----
B-------3------------3----------3---3--------3-------
G-----0---0--------0---0------2-------2----2---------
D---0-------0----2-------2--0------------0-----------
A--------------0-------------------------------------
E-3--------------------------------------------------


PRECORO 1
---C----------------A#/G#--------Dsus---------C9------------
E--------------------------------------3--------------------
B----------1h3------------3----------3---3------------3-----
G--------0-----0--------0---0------2-------2--------0---0---
D----0h2---------2----0-------0--0--------------0h2-------2-
A--3----------------2-------------------------3-------------
E-----------------------------------------------------------

------Dsus----------D
E-----------3-------↑
B---------3---3-----↑
G-------2-------2---↑
D-----0-------------↑
A-------------------↑
E-------------------↑
----------------(Strum-rasgueo)


coro:

Strum - Rasgueo


 G   C9  D     Bm  Em    C9   D
dd  uu dududd  ddudud   ddud duddud udud udud


VERSO 1
--G----------Dsus------- Em----------Dsus-------- C------------G------------
E------------------3P2-2-------------------3--------------------------------
B-------0--------3---------------3-------3---3------------1----------3-------
G-----0---0----2---------------0---0---2-------2--------0---0------0---0-----
D---0--------0-------------0h2-------0--------------0h2----------0-------0---
A------------------------2------------------------3--------------------------
E-3------------------------------------------------------------3-------------

---E/D-------Dsus--------D--------
E------------------3-----------2--
B--------3-------3---3-------3----
G------0---0---2-------2---2------
D----2-------0-----------0--------
A--0------------------------------
E---------------------------------



VERSO 2
--G----------D-------------Em-----------D-------------C-----------
E------------------2h3------------------------2h3-----------------
B-------0--------3-----3-----------3--------3-----3-----------1---
G-----0---0----2---------2-------0---0----2---------2-------0---0-
D---0--------0---------------0h2--------0---------------0h2-------
A--------------------------2--------------------------3-----------
E-3---------------------------------------------------------------

--G------------E/D----------Dsus---------D-----------
E---------------------------------3------------2-----
B-------3------------3----------3---3--------3-------
G-----0---0--------0---0------2-------2----2---------
D---0-------0----2-------2--0------------0-----------
A--------------0-------------------------------------
E-3--------------------------------------------------

PRECORO 2
---C-------------Em------------Dsus--------C9-----------
E------------------------------------3------------------
B----------1s3------------3s5------3---3-----------3----
G--------0--------------0--------2-------2-------0---0---
D----0h2------------0h2--------0-------------0h2-------2-
A--3--------------2------------------------3-------------
E--------------------------------------------------------

------Dsus--------------D
E----------3-----3s5----↑
B--------3---3----------↑
G------2-------2--------↑
D----0------------------↑
A-----------------------↑
E-----------------------↑
---------------------(Strum-rasgueo)


coro:

Strum - Rasgueo


 G   C9  D     Bm  Em    C9   D
dd  uu dududd  ddudud   ddud duddud udud udud


NOTA-NOTE :

d : abajo
u : arriba

Observation:posicion de los acordes - position of the chords
......EADGBe
G:....320033
Dsus:.000233
Em :..022033
C:…...032010
D:……..000232
A#/G#:020030
C9 :..032033
Bm:…..224432
E/D...002033



lo pueden encontrar detalladamente tambien en mi pagina de facebook :
http://www.facebook.com/ACordeD7?ref=hl

you can also find detail on my facebook page:
 http://www.facebook.com/ACordeD7?ref=hl

ATTE: ACorde D7
version - Julio Melgar
MDA - VERSION (GEORGE BULNES)
Calificar esta versión:
Aviso: Este fichero es trabajo propio de su transcriptor y representa su interpretación personal de la canción. El material contenido en esta página es para exclusivo uso privado, por lo que se prohibe su reproducción o retransmisión, así como su uso para fines comerciales.
Más versiones de Soy Un Altar, Julio Melgar
Soy Un Altar
acordes
Soy Un Altar
tablatura
Soy Un Altar (ver 2)
tablatura
Descubre más canciones de Julio Melgar