Fatalidad, Julio Jaramillo (tablatura)

Autor: Anónimo | 31174 visualizaciones



E.-----------------------------------------------------------------------
A.-----------------------------------------------------------------------
D.------------------------------------------------------------14---------
G.------------------------11----------------11-------------12----12------
B.12-11-12-13-12----12-10----10-12----12-10----10-12----12----------12---
e.---------------11----------------11----------------12----------------12

E.-----------------------------------------------------------------------
A.-----------------------------------------------------------------------
D.------------------------------------------------------------14---------
G.------------------------11----------------11-------------12----12------
B.12-11-12-13-12----12-10----10-12----12-10----10-12----12----------12---
e.---------------11----------------11----------------12----------------12


E.-----------------------------------------------------------------------
A.-----------------------------------------------------------------------
D.-----------------------------------------------------------------------
G.-----------------------------------------------------------------------
B.15-15-17-15--13-13-15-13--12-12-13-12--10-9-10-------------------------
e.13-13-15-13--12-13-13-12--10-10-12-10---8-7--8-------------------------

E.-----------------------------------------------------------------------
A.-----------------------------------------------------------------------
D.---------------------------------------------------14------------------
G.------14----------------------------------14-12-11----12---------------
B.---13----13-------------------15-15-13-12----------------12------------
e.12----------12-15-14-14-12-12-------------------------------12---------

Esta cancion es muy linda y espero que les esta introduccion por que me tomo mucho
tiempo hacerla y practiquenla por que es algo rapida  si tienen dudas o alguna correccion
no duden en escribirme.............suerte colegas!





Calificar esta versión:
Aviso: Este fichero es trabajo propio de su transcriptor y representa su interpretación personal de la canción. El material contenido en esta página es para exclusivo uso privado, por lo que se prohibe su reproducción o retransmisión, así como su uso para fines comerciales.
Más versiones de Fatalidad, Julio Jaramillo
Fatalidad
acordes
Fatalidad (ver 2)
acordes
Fatalidad
tablatura
Fatalidad (ver 2)
tablatura
Descubre más canciones de Julio Jaramillo