Esposa, Julio Jaramillo (tablatura)

Autor: Anónimo | 46520 visualizaciones



saludos a todos mis amigos esta es otra mas de mis colaboraciones.....
espero que les guste cualquier duda  mi correo [email protected]


          ESPOSA
TAB INTRO
//DO#7 FA#// bis

E||-13-13-13-13-13-13-13-13-13-13-13-13-13-13-13-13-13-13-13-13-13-13-13-13
B||-14-14-14-14-14-14-14-14-14-14-14-14-14-14-14-14-14-14-14-14-14-14-14-14
G||------------------------------------------------------------------------
D||------------------------------------------------------------------------
A||------------------------------------------------------------------------
E||------------------------------------------------------------------------

  -14-14-14-14-14-14-14-14-14-14-14-14-14-14-14-14-14-14-14-14-14-14-14-14
  -14-14-14-14-14-14-14-14-14-14-14-14-14-14-14-14-14-14-14-14-14-14-14-14
  ------------------------------------------------------------------------
  ------------------------------------------------------------------------
  ------------------------------------------------------------------------
  ------------------------------------------------------------------------


  -13-13-13-13-13-13-13-13-13-13-13-13-13-13-13-13-13-13-13-13-13-13-13-13
  -14-14-14-14-14-14-14-14-14-14-14-14-14-14-14-14-14-14-14-14-14-14-14-14
  ------------------------------------------------------------------------
  ------------------------------------------------------------------------
  ------------------------------------------------------------------------
  ------------------------------------------------------------------------

  --14-----14||
  --14-----14||
  -----------||
  -----------||
  -----------||
  -----------||

TAB INTERMEDIO
//DO#7 - FA#m// bis

E -------1-4-9-|-7-6-7-4-9-|-7-6-7-4-7-|-5-4-5-4-7-|-5---------1-4-9-|
B -2-1-2-------|-----------|-----------|-----------|---2-2-1-2-------|
G -------------|-----------|-----------|-----------|-----------------|
D -------------|-----------|-----------|-----------|-----------------|
A -------------|-----------|-----------|-----------|-----------------|
E -------------|-----------|-----------|-----------|-----------------|

E -7-6-7-4-7-|-5-4-5-4-7-|-5-4-5-2-2-|-3-2-0-------|
B -----------|-----------|-----------|-------3-2-3-|
G -----------|-----------|-----------|-------------|
D -----------|-----------|-----------|-------------|
A -----------|-----------|-----------|-------------|
E -----------|-----------|-----------|-------------|





Calificar esta versión:
Aviso: Este fichero es trabajo propio de su transcriptor y representa su interpretación personal de la canción. El material contenido en esta página es para exclusivo uso privado, por lo que se prohibe su reproducción o retransmisión, así como su uso para fines comerciales.
Más versiones de Esposa, Julio Jaramillo
Esposa
acordes
Esposa
tablatura
Descubre más canciones de Julio Jaramillo