El Aguacate, Julio Jaramillo (tablatura) (ver 2)

Autor: Anónimo | 33781 visualizaciones



el punteo esta en Gm, si quieres ver como tocar el punteo buscame en
youtube como cteran01 el aguacate..

E---6-6-6-5-8--6--6-12--10-5-5-5-3-6-5-5-10-8--3-3-3-2-5-3-8---------
B--8--8-8-7-10-8--8-13--12-6-6-6-5-8-6-6-11-10-5-5-5-3-6-5-10-10-8-6-
G-7-----------------------------------------------------------10-9-7-
D--------------------------------------------------------------------

E-------
B-----7-
G-7-9--
D-------

E---6-6-6-5-8--6--6-12--10-5-5-5-3-6-5-5-10-8--3-3-3-2-5-3-8---------
B--8--8-8-7-10-8--8-13--12-6-6-6-5-8-6-6-11-10-5-5-5-3-6-5-10-10-8-6-
G-7-----------------------------------------------------------10-9-7-
D--------------------------------------------------------------------





Calificar esta versión:
Aviso: Este fichero es trabajo propio de su transcriptor y representa su interpretación personal de la canción. El material contenido en esta página es para exclusivo uso privado, por lo que se prohibe su reproducción o retransmisión, así como su uso para fines comerciales.
Más versiones de El Aguacate, Julio Jaramillo
El Aguacate
acordes
El Aguacate
tablatura
El Aguacate (ver 2)
tablatura
Descubre más canciones de Julio Jaramillo