Limon Y Sal, Julieta Venegas (bajo)

Autor: Anónimo | 18472 visualizaciones

Julieta Venegas
Limon y sal

 Intro (uh, uh, uh,...)
G----------------------------------------------
D----------------------------------------------
A---------------2----4------------------4----4-
E-0--2-2-4--2-2-----------0--2-2-4--2-2--------

 Versos x4
G-------------------------------------
D------4--------------------------4---
A-2--2---2------2--------4---2--2---2-
E----------0--0---0-2--2---2----------

 Pre-coro
G--------------------------------------------
D--------------------------------------------
A--------------------2------------------2----
E-0--2--4--4--2-----------0--2--4----2-----2-

 Coro
G---------------------------------------------------------
D---------------------------------------------------------
A-2----------------2--------4-----2----------------2------
E----2--4--2--0--0---0-2--2----2-----2--4--2--0--0---0-2--

 Puente (uh, uh, uh,...)
G----------------------------------------------
D----------------------------------------------
A---------------2----4------------------4------
E-0--2-2-4--2-2-----------0--2-2-4--2-2------2-

 Versos x2
G-------------------------------------
D------4--------------------------4---
A-2--2---2------2--------4---2--2---2-
E----------0--0---0-2--2---2----------

 Pre-coro
G-----------------------------------------------------
D-----------6----------------------------2------------
A---------6---6--------2---------------2---------2----
E-0--2--4-------2-----------0--2--4--0-----2--2-----2-

 Coro x2
G---------------------------------------------------------
D---------------------------------------------------------
A-2----------------2--------4-----2----------------2------
E----2--4--2--0--0---0-2--2----2-----2--4--2--0--0---0-2--

 Puente con trompetas     (uh, uh, uh,...)
G----------------------------------------------------
D----------------------------------------------------
A-2----------------2--------4-----------------4------
E----2--4--2--0--0---0-2--2---2-0--2-2-4--2-2------2-

 Final (solo tenerte cerca...)
G-----------------------
D--------------2--------
A------------2--------2-
E-0--2--4--0-----2------
Calificar esta versión:
Aviso: Este fichero es trabajo propio de su transcriptor y representa su interpretación personal de la canción. El material contenido en esta página es para exclusivo uso privado, por lo que se prohibe su reproducción o retransmisión, así como su uso para fines comerciales.
Más versiones de Limon Y Sal, Julieta Venegas
Limón Y Sal
acordes
Limon Y Sal (ver 2)
acordes
Limon Y Sal
bajo
Descubre más canciones de Julieta Venegas