Lento, Julieta Venegas (bajo)

Autor: Anónimo | 25385 visualizaciones



se escucha un 100 % igual, espero sea de su agrado.

VERSO

G---------------------------------------------------
D----------------------------------4-4--------44444-
A-------1-1-----1-1-----1-1-----3----------3--------
E---1-1-----1-1-----1-1-----3-3--------3-3----------
“si quieres un poco de mi..”

CORO

G------------------------------------------
D------------------------------------------
A-------8-------10-------3-------7---------
E---6-6---6-8-8----8-1-1---1-5-5---5-------
“se delicado y espera..”


G------------------------------------------
D------------------------------------------
A-------8-------10-------333------777------
E---6-6---6-8-8----8-1-1------5-5----------



G------------------------------------------
D------------------------------------------
A-------8-------10-------3-------7---------
E---6-6---6-8-8----8-1-1---1-5-5---5-------



G------------------------------------------
D------------------------------------------
A-------8-------10-------333------777------
E---6-6---6-8-8----8-1-1------5-5----------



G------------------------------------------
D------------------------------------------
A--------------------1-1-------1-1---------
E---6-6-8-8-----1-1-------1-1--------------

VERSO

G---------------------------------------------------
D----------------------------------4-4--------44444-	X 2
A-------1-1-----1-1-----1-1-----3----------3--------
E---1-1-----1-1-----1-1-----3-3--------3-3----------


Después de esto se repite el coro varias veces
luego se hace un silencio en el minuto 2:40
enseguida entra un slide del 6 al 8 en la
cuerda E y termina la canción con las notas del coro.

Dudas o comentarios con Joss  [email protected]


Un saludo a hans pañal y el yoyo





Calificar esta versión:
Aviso: Este fichero es trabajo propio de su transcriptor y representa su interpretación personal de la canción. El material contenido en esta página es para exclusivo uso privado, por lo que se prohibe su reproducción o retransmisión, así como su uso para fines comerciales.
Más versiones de Lento, Julieta Venegas
Lento
acordes
Lento (ver 2)
acordes
Lento (ver 3)
acordes
Lento (ver 4)
acordes
Lento
bajo
Descubre más canciones de Julieta Venegas