Andar Conmigo, Julieta Venegas (bajo)

Autor: Anónimo | 15917 visualizaciones

Bajo

G||-----------------0----|-----------------0----|-----------------0----|
D||------------2---------|------------2---------|------------2---------|
A||--3------3------------|--3------3------------|--3------3------------|
E||----------------------|----------------------|----------------------|



-------------------|-------------------|-----------------------|
-------------------|-------------------|------------10---------|
--3----------------|--------------3/---|--8------8--------8----|
-------------------|-------------------|-----------------------|



--------------------------|-----------------0----|-----------------------|
--------------12----------|------------2---------|------------10---------|
--10------10--------10----|--3------3------------|--8------8--------8----|
--------------------------|----------------------|-----------------------|



--------------------------|-----------------------|--------------------------|
--------------12----------|------------10---------|--------------12----------|
--10------10--------10----|--8------8--------8----|--10------10--------10----|
--------------------------|-----------------------|--------------------------|



-----------------0----|-----------------------|--------------------------|
------------2---------|------------10---------|--------------12----------|
--3------3------------|--8------8--------8----|--10------10--------10----|
----------------------|-----------------------|--------------------------|



-----------------0----|-----------------------|--------------------------|
------------2---------|------------10---------|--------------12----------|
--3------3------------|--8------8--------8----|--10------10--------10----|
----------------------|-----------------------|--------------------------|



------------0--------|-----------------0----|----------------------|
--3------3-----------|------------2---------|----------------------|
---------------------|--3------3------------|--7------7--7----7----|
---------------------|----------------------|----------------------|



----------------------|-------------------|--------------------------|
----------------------|--3----------------|--------------12----------|
--8------8--8----8----|-------------------|--10------10--------10----|
----------------------|-------------------|--------------------------|



-----------------0----|-----------------------|--------------------------|
------------2---------|------------10---------|--------------12----------|
--3------3------------|--8------8--------8----|--10------10--------10----|
----------------------|-----------------------|--------------------------|



--------------------------|-----------------0----|-----------------------|
--------------12----------|------------2---------|------------10---------|
--10------10--------10----|--3------3------------|--8------8--------8----|
--------------------------|----------------------|-----------------------|



--------------------------|--------------------------|-----------------0----|
--------------12----------|--------------12----------|------------2---------|
--10------10--------10----|--10------10--------10----|--3------3------------|
--------------------------|--------------------------|----------------------|



-----------------------|--------------------------|--------------------------|
------------10---------|--------------12----------|--------------12----------|
--8------8--------8----|--10------10--------10----|--10------10--------10----|
-----------------------|--------------------------|--------------------------|



-----------------0----|-----------------------|--------------------------|
------------2---------|------------10---------|--------------12----------|
--3------3------------|--8------8--------8----|--10------10--------10----|
----------------------|-----------------------|--------------------------|



----------------------|-----------------0----|-----------------------|
----------------------|------------2---------|------------10---------|
--10------------10/---|--3------3------------|--8------8--------8----|
----------------------|----------------------|-----------------------|



--------------------------|-----------------0----|-----------------------|
--------------12----------|------------2---------|------------10---------|
--10------10--------10----|--3------3------------|--8------8--------8----|
--------------------------|----------------------|-----------------------|



--------------------------|-----------------------|--------------------------|
--------------12----------|------------10---------|--------------12----------|
--10------10--------10----|--8------8--------8----|--10------10--------10----|
--------------------------|-----------------------|--------------------------|



-----------------0----|-----------------------|--------------------------|
------------2---------|------------10---------|--------------12----------|
--3------3------------|--8------8--------8----|--10------10--------10----|
----------------------|-----------------------|--------------------------|



-----------------0----|-----------------------|--------------------------|
------------2---------|------------10---------|--------------12----------|
--3------3------------|--8------8--------8----|--10------10--------10----|
----------------------|-----------------------|--------------------------|



------------0--------|-----------------0----|----------------------|
--3------3-----------|------------2---------|----------------------|
---------------------|--3------3------------|--7------7--7----7----|
---------------------|----------------------|----------------------|



----------------------|-------------------|--------------------------|
----------------------|--3----------------|--------------12----------|
--8------8--8----8----|-------------------|--10------10--------10----|
----------------------|-------------------|--------------------------|



-----------------0----|-----------------------|--------------------------|
------------2---------|------------10---------|--------------12----------|
--3------3------------|--8------8--------8----|--10------10--------10----|
----------------------|-----------------------|--------------------------|



--------------------------|-----------------0----|-----------------------|
--------------12----------|------------2---------|------------10---------|
--10------10--------10----|--3------3------------|--8------8--------8----|
--------------------------|----------------------|-----------------------|



--------------------------|--------------------------|-----------------0----|
--------------12----------|--------------12----------|------------2---------|
--10------10--------10----|--10------10--------10----|--3------3------------|
--------------------------|--------------------------|----------------------|



-----------------------|--------------------------|--------------------------|
------------10---------|--------------12----------|--------------12----------|
--8------8--------8----|--10------10--------10----|--10------10--------10----|
-----------------------|--------------------------|--------------------------|



-----------------0----|-----------------------|--------------------------|
------------2---------|------------10---------|--------------12----------|
--3------3------------|--8------8--------8----|--10------10--------10----|
----------------------|-----------------------|--------------------------|



--------------------------|-----------------0----|-----------------------|
--------------12----------|------------2---------|------------10---------|
--10------10--------10----|--3------3------------|--8------8--------8----|
--------------------------|----------------------|-----------------------|



--------------------------|--------------------------|-----------------0----|
--------------12----------|--------------12----------|------------2---------|
--10------10--------10----|--10------10--------10----|--3------3------------|
--------------------------|--------------------------|----------------------|



-----------------------|--------------------------|--------------------------|
------------10---------|--------------12----------|--------------12----------|
--8------8--------8----|--10------10--------10----|--10------10--------10----|
-----------------------|--------------------------|--------------------------|



-----------------0----|-----------------------|--------------------------|
------------2---------|------------10---------|--------------12----------|
--3------3------------|--8------8--------8----|--10------10--------10----|
----------------------|-----------------------|--------------------------|



--------------------------|-----------------0----|-----------------------|
--------------12----------|------------2---------|------------10---------|
--10------10--------10----|--3------3------------|--8------8--------8----|
--------------------------|----------------------|-----------------------|



--------------------------|--------------------------|--------------------|
--------------12----------|--------------12----------|--------------------|
--10------10--------10----|--10------10--------10----|--10----------------|
--------------------------|--------------------------|--------------------|



------------------||
------------------||
------------------||
------------------||


Esta la tablatura en bajo para esta chida cancion ,,,, una
reconmedaciion para los habitantes de la radio hispana escuchen
'CUANDO EL MU8NDO SE DESINTEGRE'
Calificar esta versión:
Aviso: Este fichero es trabajo propio de su transcriptor y representa su interpretación personal de la canción. El material contenido en esta página es para exclusivo uso privado, por lo que se prohibe su reproducción o retransmisión, así como su uso para fines comerciales.
Más versiones de Andar Conmigo, Julieta Venegas
Andar Conmigo
acordes
Andar Conmigo
tablatura
Andar Conmigo
bajo
Andar Conmigo
armonica
Descubre más canciones de Julieta Venegas