Algo Esta Cambiando, Julieta Venegas (acordes) (ver 2)

Autor: Anónimo | 20497 visualizaciones

abbbmcdemem7g
La anterior transcripción tiene algunos errores, espero y esta
sí les pueda servir... se la dedico a mi gran amiga tUzItA..!


D                                              Bm
 Me hablas, preguntas, si nos podemos ver después
D                                            Bm
 razones me sobran pero aunque quiera no lo sé
Bb                   G               A           D
 siempre hay algo más, que a simple vista no se ve
Bb                    G               A
 será que hay algo más, que a simple vista no...

D                                       Bm
 Te asusta la idea de lo que pueda suceder,
D                                           Bm
 decirte quisiera algo que te haga sentir bien,
Bb                       G               A           D
 pero es que hay algo más, que a simple vista no se ve
Bb                    G               A            
 será que hay algo más, que a simple vista...

       Em           Em7                                   D
No se ve... pero siento que hay en mi algo que esta cambiando

D                                                Bm
 No pienses que olvido, lo que me ha dado tu querer
D                                        Bm
 lo llevo conmigo, así me puedo sentir bien
Bb                       G               A           D
 pero es que hay algo más, que a simple vista no se ve
Bb                    G               A             
 será que hay algo más, que a simple vista...

       Em           Em7                                   D
No se ve... pero siento que hay en mi algo que esta cambiando

C                                                   Bm
 Que más quisiera yo, que ser feliz y darte amor, amor
C                                                 A     [D  Bm  x2] 
 que más quisiera yo, vivir feliz y darte amor, amor...


E ----------------------------------------------=
B --------7----------7----------7-8-7-----------=
G --7--9-------7--9-------7--9--------9-7-------=
D ----------------------------------------9-----=
A ----------------------------------------------=
E ----------------------------------------------=

E ----------------------------------------------=
B --------7----------7----------7-8-7-----7-----=
G --7--9-------7--9-------7--9--------9-7---7---=
D --------------------------------------------9-=
A ----------------------------------------------=
E ----------------------------------------------=


Bb                   G               A
 Siempre hay algo más, que a simple vista...

       Em           Em7                                   D
No se ve... pero siento que hay en mi algo que esta cambiando...


El Final se toca  Em7  y  D  con juego en la 1er. cuerda:

Em7

E --0---2--2--2--2---2----0--0--0--0------------------=
B --3---3--3--3--3---3----3--3--3--3------------------=
G --0---0--0--0--0---0----0--0--0--0------------------=
D --0---0--0--0--0---0----0--0--0--0------------------=
A --2---2--2--2--2---2----2--2--2--2------------------=
E --0---0--0--0--0---0----0--0--0--0------------------=

D

E --0---2--2--2--2---2----0--0--0--0------------------=
B --3---3--3--3--3---3----3--3--3--3------------------=
G --2---2--2--2--2---2----2--2--2--2------------------=
D --0---0--0--0--0---0----0--0--0--0------------------=
A --0---0--0--0--0---0----0--0--0--0------------------=
E --0---0--0--0--0---0----0--0--0--0------------------=

Dudas, sugerencias, reclamaciones? a mi MSN...!

::::::::::::::::::::::::::::::::::::::::::::::::::::::::::::
Calificar esta versión:
Aviso: Este fichero es trabajo propio de su transcriptor y representa su interpretación personal de la canción. El material contenido en esta página es para exclusivo uso privado, por lo que se prohibe su reproducción o retransmisión, así como su uso para fines comerciales.
Más versiones de Algo Esta Cambiando, Julieta Venegas
Algo Esta Cambiando
acordes
Algo Esta Cambiando (ver 2)
acordes
Descubre más canciones de Julieta Venegas