Breaking The Law, Judas Priest (tablatura) (ver 2)

Autor: bafometal | 35726 visualizaciones

Intro:
              				      
E|--------------|-------------|--------------|--------------|
B|--------------|-------------|--------------|--------------|
G|o-------------|-------------|--------------|-------------o|
D|o-------------|-------------|--------------|-------------o|
A|-0--2--3--0-2-|-3~--0-2-3~--|-------0------|-0----3--2~---|
E|--------------|-------------|-1--3-----1-3-|----3---------|

verso 1:
						
E--------------|--------------|--------------|----------------|
B--------------|--------------|--------------|----------------|
G-2------------|----------X-X-|-5--X-X-----2-|----------------|
D-2------------|----------X-X-|-5--X-X-5---2-|----------------|
A-0------------|----------X-X-|-3--X-X-5---0-|----------------|
E--------------|--------------|--------3-----|----------------|

E--------------|--------------|---------------|---------------|
B--------------|--------------|---------------|---------------|
G-2------------|----------X-X-|-5--X-X------2-|---------------|
D-2------------|----------X-X-|-5--X-X-5--X-2-|---------------|
A-0------------|----------X-X-|-3--X-X-5--X-0-|---------------|
E--------------|--------------|--------3--X---|---------------|

E--------------|--------------|-------------|----------------|
B--------------|--------------|-------------|----------------|
G-10-----------|---------10--|-5-----------|-5---5---5/-----|
D-10-----------|---------10--|-5-----------|-5---5---5/-----|
A-8------------|----------8--|-3-----------|-3---3---3/-----|
E--------------|--------------|-------------|----------------|

E--------------|-------------|--------------|---------------|
B--------------|-------------|--------------|---------------|
G-/10----------|-10----------|-9----9-9-9-9-|-9-------------|
D-/10----------|-10----------|-9----9-9-9-9-|-9-------------|
A-/8-----------|-8-----------|-7----7-7-7-7-|-7-------------|
E--------------|-------------|--------------|---------------|











coro 1

.1
  P.M----------------------------|            P.M--------
E-----------------|------------------|--------------------|
B-----------------|---------------10-|-(10)--------------|
G-----------------|---------------9--|-(9)---------------|
D-----------------|---------------7--|-(7)---------------|
A-0-0-0-0-0-0-0-0-|-0-0-0-0-0-0-0----|--------0-0-0-0-0-0-|
E-----------------|------------------|--------------------|

Gtr.2
E-----------------|---------------17-|-(17)--------------|
B-----------------|---------------17-|-(17)--------------|
G-----------------|---------------14-|-(14)--------------|
D-----------------|------------------|--------------------|
A-----------------|------------------|--------------------|
E-----------------|------------------|--------------------|

.1
  ---------|              P.M------------------------| 
E------------------|------------------|------------------|
B-----------10--10-|-(10)-------------|---------------10-|
G-----------9---9--|-(9)--------------|---------------9--|
D-----------7---7--|-(7)--------------|---------------7--|
A-0-0-0-0-0--------|------0-0-0-0-0-0-|-0-0-0-0-0-0-0----|
E------------------|------------------|------------------|

Gtr.2
E-----------17--17-|------------------|---------------17-|
B-----------17--17-|-(10)------------|---------------17-|
G-----------14--14-|-(9)-------------|---------------14-|
D------------------|-(7)-------------|------------------|
A------------------|------------------|------------------|
E------------------|------------------|------------------|

Gtr.1
E--------------------|------------------|
B-(10)--------------|-----------10--10-|
G-(9)---------------|-----------9---9--|
D-(7)---------------|-----------7---7--|
A--------0-0-0-0-0-0-|-0-0-0-0-0--------|
E--------------------|------------------|

Gtr.2
E-(17)--------------|-----------17--17-|
B-(17)--------------|-----------17--17-|
G-(14)--------------|-----------14--14-|
D--------------------|------------------|
A--------------------|------------------|
E--------------------|------------------|







verso 2:
						
E--------------|--------------|---------------|---------------|
B--------------|--------------|---------------|---------------|
G-2------------|----------X-X-|-5--X-X------2-|---------------|
D-2------------|----------X-X-|-5--X-X-5--X-2-|---------------|
A-0------------|----------X-X-|-3--X-X-5--X-0-|---------------|
E--------------|--------------|--------3--X---|---------------|

E--------------|--------------|---------------|---------------|
B--------------|--------------|---------------|---------------|
G-2------------|----------X-X-|-5--X-X-7--X-X-|-9-------------|
D-2------------|----------X-X-|-5--X-X-7--X-X-|-9-------------|
A-0------------|----------X-X-|-3--X-X-5--X-X-|-7-------------|
E--------------|--------------|---------------|-0-------------|


E--------------|-----------------|-------------|-----------|
B--------------|-----------------|-------------|-----------|
G-10-----------|-10-------(10)--|-5-----------|-5-----5/--|
D-10-----------|-10-------(10)--|-5-----------|-5-----5/--|
A-8------------|-8--------(8)---|-3-----------|-3-----3/--|
E--------------|-----------------|-------------|-----------|

E--------------|---------------|--------------|-----------------|
B--------------|---------------|--------------|-----------------|
G-/10----------|-10----10---9-|-9------------|-9--14----(14)--|
D-/10----------|-10----10---9-|-9------------|-9--14----(14)--|
A-/8-----------|-8-----8----7-|-7------------|-7---------------|
E--------------|---------------|-0------------|-----------------|

coro 2:

Gtr.1
  P.M----------------------------|            P.M--------
E-----------------|------------------|--------------------|
B-----------------|---------------10-|-(10)--------------|
G-----------------|---------------9--|-(9)---------------|
D-----------------|---------------7--|-(7)---------------|
A-0-0-0-0-0-0-0-0-|-0-0-0-0-0-0-0----|--------0-0-0-0-0-0-|
E-----------------|------------------|--------------------|

Gtr.2
E-----------------|---------------17-|-(17)--------------|
B-----------------|---------------17-|-(17)--------------|
G-----------------|---------------14-|-(14)--------------|
D-----------------|------------------|--------------------|
A-----------------|------------------|--------------------|
E-----------------|------------------|--------------------|








Gtr.1
  ---------|              P.M------------------------| 
E------------------|------------------|------------------|
B-----------10--10-|-(10)-------------|---------------10-|
G-----------9---9--|-(9)--------------|---------------9--|
D-----------7---7--|-(7)--------------|---------------7--|
A-0-0-0-0-0--------|------0-0-0-0-0-0-|-0-0-0-0-0-0-0----|
E------------------|------------------|------------------|

Gtr.2
E-----------17--17-|------------------|---------------17-|
B-----------17--17-|-(10)------------|---------------17-|
G-----------14--14-|-(9)-------------|---------------14-|
D------------------|-(7)-------------|------------------|
A------------------|------------------|------------------|
E------------------|------------------|------------------|

Gtr.1
E--------------------|------------------|
B-(10)--------------|-----------10--10-|
G-(9)---------------|-----------9---9--|
D-(7)---------------|-----------7---7--|
A--------0-0-0-0-0-0-|-0-0-0-0-0--------|
E--------------------|------------------|

Gtr.2
E-(17)--------------|-----------17--17-|
B-(17)--------------|-----------17--17-|
G-(14)--------------|-----------14--14-|
D--------------------|------------------|
A--------------------|------------------|
E--------------------|------------------|

                        P.M                     P.M
E|--------------|-----------|-----------|-----------|
B|--------------|-----------|-----------|-----------|
G|o-4-----4---4-|---2--2----|-4-----4-4-|---2--2----|
D|o-4-----4---4-|---2--2----|-4-----4-4-|---2--2----|
A|--2-----2---2-|---0--0--0-|-2-----2-2-|---0--0--0-|
E|--------------|-----------|-----------|-----------|

E-----------|-----------|-----------|-----------|
B-----------|-----------|-----------|-----------|
G-4-----4-4-|---2--2--2-|-4-----4-4-|---2--2--2-|
D-4-----4-4-|---2--2--2-|-4-----4-4-|---2--2--2-|
A-2-----2-2-|---0--0--0-|-2-----2-2-|---0--0--0-|
E-----------|-----------|-----------|-----------|

E-------------|-------------|--------------|-------------|
B-------------|-------------|--------------|-------------|
G-7-----7/-10-|-10---5------|--7-----7/-10-|-10---12-----|
D-7-----7/-10-|-10---5------|--7-----7/-10-|-10---12-----|
A-5-----5/-8--|-8----3------|--5-----5/-8--|-8----10-----|
E-------------|-------------|--------------|-------------|




E-------------|-------------|--------------|--------------|
B-------------|-------------|--------------|--------------|
G-7-----7/-10-|-10---5------|--7-----7/-10-|-10---12-----o|
D-7-----7/-10-|-10---5------|--7-----7/-10-|-10---12-----o|
A-5-----5/-8--|-8----3------|--5-----5/-8--|-8----10------|
E-------------|-------------|--------------|--------------|

E|--------------|-------------|--------------|--------------|
B|--------------|-------------|--------------|--------------|
G|o-------------|-------------|--------------|-------------o|
D|o-------------|-------------|--------------|-------------o|
A|-0--2--3--0-2-|-3~--0-2-3~--|-------0------|-0----3--2~---|
E|--------------|-------------|-1--3-----1-3-|----3---------|

Chorus 3:

E|--------------|-------------|--------------|--------------|
B|--------------|-------------|--------------|--------------|
G|o-------------|-------------|--------------|-------------o|
D|o-------------|-------------|--------------|-------------o|
A|-0--2--3--0-2-|-3~--0-2-3~--|-------0------|-0----3--2~---|
E|--------------|-------------|-1--3-----1-3-|----3---------|

						         
E|----------------|--------------|-----------|------------------|
B|----------------|--------------|-----------|------------------|
G|o---------------|--------------|-----------|-----------------o|
D|o---------------|--------------|-----------|-----------------o|
A|-(0)--2-3~--0-2-|-3~--0-2--3---|----0------|-----0----3----0--|
E|----------------|------------1-|-3-----1-3-|-(3)----3---3-----|
     
 
E-----------------|---------------||
B-----------------|---------------||
G---------------2-|---------------||
D---------------2-|---------------||
A-----0----3-2--0-|---------------||
E-(3)----3--------|---------------||

==================
Calificar esta versión:
Aviso: Este fichero es trabajo propio de su transcriptor y representa su interpretación personal de la canción. El material contenido en esta página es para exclusivo uso privado, por lo que se prohibe su reproducción o retransmisión, así como su uso para fines comerciales.
Más versiones de Breaking The Law, Judas Priest
Breaking The Law
tablatura
Breaking The Law (ver 2)
tablatura
Breaking The Law (ver 3)
tablatura
Descubre más canciones de Judas Priest