Desde Que Despierto, Juanes (tablatura)

Autor: Anónimo | 20271 visualizaciones

Como ya están los acordes de la canción solo enviaré
el pequeño punteo (es muy sencillo y facil de tocar).


e--7/87-----------------------------------
B--------8-6-5--------5-6-5----------------
G--------------7-5--7-------7-5-4----------
D---------------------------------5/7-5----
A------------------------------------------
E------------------------------------------


()= Se toca suave

e----3-----------7---(7)-8-8-10-8-10-10/12-10-8--
B---5--6-5-6/8----(8)-----8----8-----------------
G--5---------------------------------------------
D------------------------------------------------
A------------------------------------------------
E------------------------------------------------

Fuente original: LaCuerda
Colaborador original: Jose A. Rodriguez [joslirol@col3.telecom.com.co]
Calificar esta versión:
Aviso: Este fichero es trabajo propio de su transcriptor y representa su interpretación personal de la canción. El material contenido en esta página es para exclusivo uso privado, por lo que se prohibe su reproducción o retransmisión, así como su uso para fines comerciales.
Más versiones de Desde Que Despierto, Juanes
Desde Que Despierto
acordes
Desde Que Despierto
tablatura
Descubre más canciones de Juanes