Bailala, Juanes (tablatura)

Autor: Anónimo | 44032 visualizaciones

Hola A TODOS
ESTE ES ES SOLO DEL COMIENZO!!
de la CanCion BAILALA..

¾:deslis
V:vibrato
/:quebrado o machucado(perdon la expresion)



e--------------------------------------------------------------
B--------------------------------------------------------------
G-------------8V----10-8/10----8V-------------------8V---------
D--------8-10----10---------10----10-----------8-10----10------
A---7¾10---------------------------------7¾10-----------------
E--------------------------------------------------------------

e-------------------------------------------------------------
B--------------------------------------------------------------
G-------------8V----10-8/10----8V---------------------------
D--------8-10----10---------10----10----------8---------------
A---7¾10---------------------------------8/10---10-8-6V--------
E-------------------------------------------------------8V----

e-----------------------------------------------------------
B---8--8---10---8---------------------------------------------
G---8--8---10---8-------------8V----10-8/10----8V-------------
D------------------------8-10----10---------10----10----------
A-------------------7¾10--------------------------------------
E-----------------------------------------------------------

e-------------------------------------------------------------
B----------------------------------------------------------
G-------------8V-------------------8V----10-8/10----8V--------
D--------8-10----10-----------8-10----10---------10----10------
A--7¾10------------------7¾10---------------------------------
E-------------------------------------------------------------


e-------------------------------------------------------------
B------------------------------------------------------------
G------------------------------------------------------------
D---------8---------------------------------------------------
A----7¾10---10-8-6V-------------------------------------------
E-------------------8V----------------------------------------


SOn los tambores que invocan al amor los que resuenaaannnn...
escuchen la canciony sigan mi tab....

es muy chevre y sencilla no olviden escuchar la cancion
mientras siguen mi tab. sigan el ritmo
dudas o algo escribanm bye
Calificar esta versión:
Aviso: Este fichero es trabajo propio de su transcriptor y representa su interpretación personal de la canción. El material contenido en esta página es para exclusivo uso privado, por lo que se prohibe su reproducción o retransmisión, así como su uso para fines comerciales.
Más versiones de Bailala, Juanes
Bailala
acordes
Bailala
tablatura
Descubre más canciones de Juanes