Vuelan Alto, Jovenes Pordioseros (tablatura)

Autor: Anónimo | 32811 visualizaciones

 intro: G D Dsus4 D (C G)=> arpegiados
       (G D C G)x2=>arpegiados

  (G)      (D)     (C)    (G)
    En los dias que, el dolor se cae
  (G)     (D)     (C)    (G)
    puedo ver alrededor
  (G)        (D)    (C)      (G)
    todo el tiempo se que ya no vendras
  (G)     (D)       (C)   (G)
    y mis penas volaran


 E  / C       G
 s  |  vuelan alto
 t  | Bm      C
 r  |  no se quedaran
 i=>| C       G        (D)
 b  |  vuelan alto  se van
 i  |  G
 l  |  ya se van
 l  
 o

solo 1
G D C G
e|--3--3-5-6-7------5--5-8-7-5-3--|-----3--3-5-6-7------5--4-8-7-3--|
B|--------------------------------|---------------------------------|
G|--4--4-5-6-7--5/6----6-8-7-6-4--|-3/4----4-5-6-7--5/6----6-8-7-4--|
D|--------------------------------|---------------------------------|
A|--------------------------------|---------------------------------|
E|--------------------------------|---------------------------------|

  (G)       (D)    (C)         (G)
    Soy del barrio nuevo venganme a buscar
  (G)  (D)         (C)   (G)
    imagino oir su voz
  (G)         (D)        (C)         (G)
    ya no hay que brindar  todo termino
  (G)      (D)          (C)   (G)
    sobran copas de cristal


E  / C       G
 s  |  vuelan alto
 t  | Bm      C
 r  |  no se quedaran
 i=>| C       G        (D)
 b  |  vuelan alto  se van
 i  |  G
 l  |  ya se van
 l  
 o
solo 2
G D C G
e|--3--3-5-6-7------5--5-8-7--3------3-|-----3--3-5-6-7------5--4-8-7-3---|
B|-------------------------------------|----------------------------------|
G|--4--4-5-6-7--5/6----6-8-7--4--3/4---|-3/4----4-5-6-7--5/6----6-8-7-4---|
D|-------------------------------------|----------------------------------|
A|-------------------------------------|----------------------------------|
E|-------------------------------------|----------------------------------|

e|--10--8-7-------8-7-5--------6-----|--12-10-8------7-5-3-|
B|-------------------------------7-5-|---------------------|
G|--11--9-7--7/9--9-7-5--5-5/7-------|--12-11-9--5/7-7-5-4-|
D|-------------------------------7-5-|---------------------|
A|-----------------------------------|---------------------|
E|-----------------------------------|---------------------|

e|--14-12-10-14-12-10-14-12-10--12-14-15~~--|
B|------------------------------------------|
G|--14-12-11-14-12-11-14-12-11--12-14-16~~--|
D|------------------------------------------|
A|------------------------------------------|
E|------------------------------------------|

 E  / C       G            
 s  |  vuelan alto         |
 t  | Bm      C            |
 r  |  no se quedaran      | B
 i=>| C       G        (D) | I
 b  |  vuelan alto  se van | S
 i  |  G                   |
 l  |  ya se van           |
 l                        /
 o

Bueno este tema se lo dedicamos al narigon mas
famozo del barrio Sarmiento a ABEL
les quiero decir que todas las notas que estan entre-parentesis
son las notas que tienen que ser arpegiadas (así queda mas original)
bueno por si quieren escribirme o tienen alguna duda, mi mail es
bruno0004@hotmail.com

''''''''¡¡¡NO CREO QUE ENTIENDAS ESTE SENTIMIENTO!!!''''''

los saluda BRUNO Y FRANCO(franky)
Calificar esta versión:
Aviso: Este fichero es trabajo propio de su transcriptor y representa su interpretación personal de la canción. El material contenido en esta página es para exclusivo uso privado, por lo que se prohibe su reproducción o retransmisión, así como su uso para fines comerciales.
Más versiones de Vuelan Alto, Jovenes Pordioseros
Vuelan Alto
acordes
Vuelan Alto
tablatura
Descubre más canciones de Jovenes Pordioseros