Pegado, Jovenes Pordioseros (tablatura)

Autor: Anónimo | 30000 visualizaciones

INTRO
e|--------------------------------
B|--------------------------------
G|--2--2-2---5b-----5-5b----------
D|--2--2-2---5b-7-5-5-5b-7-5------
A|--0--0-0------7-5------7-5------
E|--------------------------------


ESTROFAS
e|---------------------|---5---7---9----10--
B|---------------------|-/6--/7--/9--/11------
G|---------------------|------------------------
D|---------------------|------------------------
A|--7-7-7-7--7-9-7-9---|------------------------
E|--5-5-5-5--5-5-5-5---|---------------------


ESTRIBILLO

     RE LA RE LA RE MI
|e|---------------------------------
|B|---3-----3-----3-----------------
|G|---2--2--2--2--2-------2-2-2-----
|D|---0--2--0--2--0--2----2-2-2-----
|A|------0-----0-----2----0-0-0-----
|E|------------------0--------------
|
|e|--12b14r12--------10~~--12b14r12--------10--12b14r12-10-12~~~~----------
|B|-----------10-------------------10------------------------------------
|G|---------------/11------------------/11-------------------------------
|D|----------------------------------------------------------------------
|A|----------------------------------------------------------------------
|E|----------------------------------------------------------------------
Calificar esta versión:
Aviso: Este fichero es trabajo propio de su transcriptor y representa su interpretación personal de la canción. El material contenido en esta página es para exclusivo uso privado, por lo que se prohibe su reproducción o retransmisión, así como su uso para fines comerciales.
Más versiones de Pegado, Jovenes Pordioseros
Pegado
acordes
Pegado
tablatura
Descubre más canciones de Jovenes Pordioseros