Nunca Pude Estar Solo, Jovenes Pordioseros (tablatura)

Autor: satelite | 21779 visualizaciones

Lo toca con guitarra criolla
1:56

  Rapido                  Escuchen bien esta parte. esta perfecta
 |       |               |                                       |
e)--3-3-3s2--------------------------------------------------------
B)----------5----2s3s2---------------------------------------------
G)-----------4---------2-------------------------------------------
D)----------------------4------------------------------------------
A)--------------------------4s5-4-2-4-------2--------7-5-4-2-0-2s4s2
E)------------------------------------2--4s5--5--4s5----------------

|rapido                                      |
e)--2-2-2-0---0--5s7-5---5--5s75--5-9-9-9s7-7-5-----------------
B)----------3----------8---------8------------------------------
G)--------------------------------------------------------------
D)--------------------------------------------------------------
A)--------------------------------------------------------------
E)--------------------------------------------------------------

3.00
final
e)--------------------------------------------------
B)--------------------------------------------------
G)---0---0---0----0----0----0-----------------------
D)--5-5-4-4-2-2--0-0------------------0/2---0-------
A)--------------------3-3--2-3-2-3-2-----3----------
E)--------------------------------------------------

e)------------------------------------------3--
B)------------------------------------------3--
G)---0---0---0---0-------0---0--------------4--
D)--5-5-4-4-2-2-0-0-------------------------5--
A)----------------------3-3-2-3--3-2-3-5----5--
E)---------------------------------------2--3--
Calificar esta versión:
Aviso: Este fichero es trabajo propio de su transcriptor y representa su interpretación personal de la canción. El material contenido en esta página es para exclusivo uso privado, por lo que se prohibe su reproducción o retransmisión, así como su uso para fines comerciales.
Más versiones de Nunca Pude Estar Solo, Jovenes Pordioseros
Nunca Pude Estar Solo
acordes
Nunca Pude Estar Solo
tablatura
Descubre más canciones de Jovenes Pordioseros