Hijos Del Oeste, Jovenes Pordioseros (acordes)

Autor: agusff | 36597 visualizaciones

dolasossolsolm
 
 Intro :Solm Solm La#   Sol Do Solm  La# La#      x2

e|------------------------------------------------
B|------------------------------------------------
G|------------------------------------------------
D|------------------------------------------------
A|----8~------------------------------------------
E|---------------------------------------------------------------------

Sol
  Me cuidaste, me quisiste asi
La#              Do
  No te podria poner valor
Sol
  Me entendiste, siempre me defendes
La#                Do
  Con la gente que habla mal

La#                   Sol 
  Yo soy el hijo del Oeste
La#                    Sol 
  Me adoptaron bajo el Rocanrol
La#         Do              RIFF INTRO
  Yo soy el hijo de... del Oeste

Somos culpables de este sentimiento
Me cobijaste en tu alma
Sos mi bendicion en la soledad

Yo soy el hijo del Oeste
Me adoptaron bajo el Rocanrol
Yo soy el hijo de... del Oeste... Del Oeste!!

SOLO SOBRE: 
e|-------------------------------3---------------------------------------
B|------------------------------3-6-3------------------------------------
G|---7r5-3~----------3~-----5b7-------6-5-3------------------------------
D|---------5-----5-x---5--------------------5-3~~------------------------
A|-----------------------------------------------5-4-3-------------------
E|-----------------------------------------------------7b----------------

e|--------3--------3--------3--------3--------3--------3-----------------
B|-------3-6p3----3-6p3----3-6p3----3-6p3----3-6p3----3-6p3----3-3-------
G|---5b7------5b7------5b7------5b7------5b7------5b7------5b7-----3~----
D|-------------------------------------------------------------------5---
A|-----------------------------------------------------------------------
E|-----------------------------------------------------------------------

e|-----------------------------------------------------------------------
B|----------------------------6-5--8-8-8-10b11-8-10---8------------------
G|--7r5-3---3-5-3---------5/7-----------------------9------3-3~~-5-5-3---
D|--------5-------5-5-3-5----------------------------------------------5-
A|-----------------------------------------------------------------------
E|-----------------------------------------------------------------------

e|-----------------------------------------------------------------------
B|----------3-3---3-3-3-3------/6-6-6--/8-8-8---6b8-6-3------------------
G|----------3-3---3-3-3-3------------------------------6-5-3-------------
D|-3-3-5--x-----5---------5-x-------------------------------5-3b-5-------
A|-----------------------------------------------------------------------
E|-----------------------------------------------------------------------

e|------------------------------------------------------
B|------------------------------------------------------
G|---x-x---x-x------------------------------------------
D|---3-5---3-5------------------------------------------
A|---------------5-4-3----------------------------------
E|---------------------7b--3----------------------------


Sos el barrio, sos el corazon
En el alba dominador
Tengo ganas de subir y hablar
De aquel amor que ya no esta

Yo soy el hijo del Oeste
Me adoptaron bajo el Rocanrol
Yo soy el hijo de... del Oeste, del Oeste, del Oeste, del Oeste

Sobre el RIFF DE INTRO dice:
del Oeste!
Soy el hijo del Oeste [del Oeste!]
Nunca pienses mal de mi [del Oeste!]
Soy el hijo del Oeste [del Oeste!]
Duro cuando yo nacia [del Oeste!]
Soy el hijo del Oeste [del Oeste!]
Soy el hijo del Oeste [del Oeste!]
Soy el hijo del Oeste [del Oeste!]
Yo estoy solo desde que naci

Final: Solm Solm La#   Sol Do Solm  La#
e|------------------------------------
B|------------------------------------
G|----3--5----------------------------
D|----3--3-3-5-----------------------
A|----1--3-3-3-----------------------
E -------- 1-3-----------------------------------------




 espero q les guste  ..mi mail es agu_77_velezkpo
 
Calificar esta versión:
Aviso: Este fichero es trabajo propio de su transcriptor y representa su interpretación personal de la canción. El material contenido en esta página es para exclusivo uso privado, por lo que se prohibe su reproducción o retransmisión, así como su uso para fines comerciales.
Más versiones de Hijos Del Oeste, Jovenes Pordioseros
Hijos Del Oeste
acordes
Hijos Del Oeste
tablatura
Descubre más canciones de Jovenes Pordioseros