Hijo Del Oeste, Jovenes Pordioseros (tablatura)

Autor: Anónimo | 21413 visualizaciones

Hijo del Oeste – SOLO

e|-------------------------------3---------------------------------------
B|------------------------------3-6-3------------------------------------
G|---7r5-3~----------3~-----5b7-------6-5-3------------------------------
D|---------5-----5-x---5--------------------5-3~~------------------------
A|-----------------------------------------------5-4-3-------------------
E|-----------------------------------------------------7b----------------

e|--------3--------3--------3--------3--------3--------3-----------------
B|-------3-6p3----3-6p3----3-6p3----3-6p3----3-6p3----3-6p3----3-3-------
G|---5b7------5b7------5b7------5b7------5b7------5b7------5b7-----3~----
D|-------------------------------------------------------------------5---
A|-----------------------------------------------------------------------
E|-----------------------------------------------------------------------

e|-----------------------------------------------------------------------
B|----------------------------6-5--8-8-8-10b11-8-10---8------------------
G|--7r5-3---3-5-3---------5/7-----------------------9------3-3~~-5-5-3---
D|--------5-------5-5-3-5----------------------------------------------5-
A|-----------------------------------------------------------------------
E|-----------------------------------------------------------------------

e|-----------------------------------------------------------------------
B|----------3-3---3-3-3-3------/6-6-6--/8-8-8---6b8-6-3------------------
G|----------3-3---3-3-3-3------------------------------6-5-3-------------
D|-3-3-5--x-----5---------5-x-------------------------------5-3b-5-------
A|-----------------------------------------------------------------------
E|-----------------------------------------------------------------------

e|------------------------------------------------------
B|------------------------------------------------------
G|---x-x---x-x------------------------------------------
D|---3-5---3-5------------------------------------------
A|---------------5-4-3----------------------------------
E|---------------------7b--3----------------------------
Calificar esta versión:
Aviso: Este fichero es trabajo propio de su transcriptor y representa su interpretación personal de la canción. El material contenido en esta página es para exclusivo uso privado, por lo que se prohibe su reproducción o retransmisión, así como su uso para fines comerciales.
Más versiones de Hijo Del Oeste, Jovenes Pordioseros
Hijo Del Oeste
acordes
Hijo Del Oeste
tablatura
Descubre más canciones de Jovenes Pordioseros