Locura, Jorge Rojas (tablatura)

Autor: Anónimo | 45783 visualizaciones



Hola este es mi primer trabajo y espero que les guste, si tienen
algun comentario o sugerencia me gustaria que me las hagan llegar.

INTRO

1. -------------6-7-9-7-6-6/4-4-4-------------6p4-4---4/2-2-2--
2. -----------3----------------------3-----4--------6----------
3. ----1p3-3---------------------------3-5---------------------
4. --0---------------------------------------------------------
5. ------------------------------------------------------------
6. ------------------------------------------------------------


1. -------2-1---1---2-1------------------2---7-6--------------------------
2. -----2-----2---------4------------2-4---------7--4--2------------------
3. -1-3---------------------1--3-4-------------------------1p3-1----1p3-3-
4. ---------------------------------------------------------------4-------
5. -----------------------------------------------------------------------
6. -----------------------------------------------------------------------


     SOL
Por tenerte entre mis brazos

       RE
eh llegado a creer

       MIm
que el amor hace posible

         SIm
hasta aquello que no es



      DO
Por dejar mi corazon

          SOL
volar tan lejos

      LA
voy camino a locura

           RE
por tus besos



    SOL
Por amarte asi

              RE
eh perdido la razon esta vez

  MIm
y no voy a arrepentirme

   SIm
si me toca pèrder



  DO
Es tan grande  mi pasion

        SOl
que ya no hay dudas

        LA                      RE    SI7
que me lleva simplemente a la locura..ah-.-.-.



Estribillo:

 MIm                               DO
Amame y deja que yo te ame hasta enloquecer

                       RE
ayudame a matar este deseo

                       SOL           RE
que poco a poco va quemandome la piel (toda mi piel)


  MIm                               DO
Amame y deja que yo te ame hasta enloquecer

                                RE
latiendo en cada espacio de tu cuerpo

                          SoL            SI7  DO  RE  MIm
que no tenga final esta locura........de amor





Calificar esta versión:
Aviso: Este fichero es trabajo propio de su transcriptor y representa su interpretación personal de la canción. El material contenido en esta página es para exclusivo uso privado, por lo que se prohibe su reproducción o retransmisión, así como su uso para fines comerciales.
Más versiones de Locura, Jorge Rojas
Locura
acordes
Locura
tablatura
Descubre más canciones de Jorge Rojas