I Gotta Find You, Jonas Brothers (tablatura)

Autor: Stevens | 44493 visualizaciones



Intro:
Capo 4	
		 V   V ^ V ^   V   V ^ V ^           V  V ^ V ^
e|--------------3~--3-3-3-3---3~--3-3-3-3-----------2~-2-2-2-2-------------|
B|--------------3~--3-3-3-2---3~--3-3-3-3-----------3~-3-3-3-3-------------|
G|----2h4p2p0---0~--0-0-0-0---0~--0-0-0-0---2h4p2p0-2~-2-2-2-2-------------|
D|------------0h2~--2-2-2-2---0~--0-0-0-0-----------0~-0-0-0-0-------------|
A|--------------3~--3-3-3-3---2~--2-2-2-2----------------------------------|
E|----------------------------3~--3-3-3-3----------------------------------|
    
    V  V ^ V ^        V   V ^ V ^   V   V ^ V ^          V  V ^ V ^
e|--0~-0-0-0-0--------3~--3-3-3-3---3~--3-3-3-3----------0~-0-0-0-0--------|
B|--0~-0-0-0-0--------3~--3-3-3-3---3~--3-3-3-3----------0~-0-0-0-0--------|
G|--0~-0-0-0-0-2p0----0~--0-0-0-0---0~--0-0-0-0—2h4p2p0—-0~-0-0-0-0--------|
D|--2~-2-2-2-2------0h2~--2-2-2-2---0~--0-0-0-0----------2~-2-2-2-2--------|
A|--2~-2-2-2-2--------3~--3-3-3-3---2~--2-2-2-2----------2~-2-2-2-2--------|
E|--0~-0-0-0-0----------------------3~--3-3-3-3----------0~-0-0-0-0--------|
    
    V  V ^ V ^
e|--2~-2-2-2-2-------------------------------------------------------------|
B|--3~-3-3-3-3-------------------------------------------------------------|
G|--2~-2-2-2-2---2h4p2p0---------------------------------------------------|
D|--0~-0-0-0-0-------------------------------------------------------------|
A|-------------------------------------------------------------------------|
E|-------------------------------------------------------------------------|

Verse:
       V  V ^ V ^  V  V ^ V ^         V  V ^ V ^ V  V ^ V ^
e|-----3~-3-3-3-3--3~-3-3-3-3---------2~-2-2-2-2h3~-3-3-3-3----------------|
B|-----3~-3-3-3-3—-3~-3-3-3-3---------3~-3-3-3-3-3~-3-3-3-3----------------|
G|-----0~-0-0-0-0--0~-0-0-0-0-2h4p2p0-2~-2-2-2-2-0~-0-0-0-0---2p0----------|
D|---0h2~-2-2-2-2--0~-0-0-0-0---------0~-0-0-0-0-2~-2-2-2-2----------------|
A|-----3~-3-3-3-3--2~-2-2-2-2--------------------2~-2-2-2-2----------------|
E|-----------------3~-3-3-3-3----------------------------------------------|
	Every time I think I'm closer to the heart 
	
	V  V ^ V ^  V  V ^ V ^        V V ^ V ^  V  V ^ V ^
e|-----3~-3-3-3-3--3~-3-3-3-3---------0~-0-0-0-0--2~-2-2-2-2---------------|
B|-----3~-3-3-3-3—-3~-3-3-3-3---------0~-0-0-0-0--3~-3-3-3-3---------------|
G|-----0~-0-0-0-0--0~-0-0-0-0-2h4p2p0-0~-0-0-0-0--2~-2-2-2-2---------------|
D|---0h2~-2-2-2-2--0~-0-0-0-0---------2~-2-2-2-2--0~-0-0-0-0---------------|
A|-----3~-3-3-3-3--2~-2-2-2-2---------2~-2-2-2-2---------------------------|
E|-----------------3~-3-3-3-3---------0~-0-0-0-0---------------------------|
	Of what it means to know just who I am 

	 V  V ^ V ^  V  V ^ V ^         V  V ^ V ^ V  V ^ V ^
e|-----3~-3-3-3-3--3~-3-3-3-3---------2~-2-2-2-2h3~-3-3-3-3----------------|
B|-----3~-3-3-3-3—-3~-3-3-3-3---------3~-3-3-3-3-3~-3-3-3-3----------------|
G|-----0~-0-0-0-0--0~-0-0-0-0-2h4p2p0-2~-2-2-2-2-0~-0-0-0-0--2p0-----------|
D|---0h2~-2-2-2-2--0~-0-0-0-0---------0~-0-0-0-0-2~-2-2-2-2----------------|
A|-----3~-3-3-3-3--2~-2-2-2-2--------------------2~-2-2-2-2----------------|
E|-----------------3~-3-3-3-3----------------------------------------------|
	I think I've finally found a better place to start
	
	V  V ^ V ^  V  V ^ V ^        V V ^ V ^  V  V ^ V ^
e|-----3~-3-3-3-3--3~-3-3-3-3---------0~-0-0-0-0--2~-2-2-2-2---------------|
B|-----3~-3-3-3-3—-3~-3-3-3-3---------0~-0-0-0-0--3~-3-3-3-3---------------|
G|-----0~-0-0-0-0--0~-0-0-0-0-2h4p2p0-0~-0-0-0-0--2~-2-2-2-2---------------|
D|---0h2~-2-2-2-2--0~-0-0-0-0---------2~-2-2-2-2--0~-0-0-0-0---------------|
A|-----3~-3-3-3-3--2~-2-2-2-2---------2~-2-2-2-2---------------------------|
E|-----------------3~-3-3-3-3---------0~-0-0-0-0---------------------------|
	no one never seems to understand 

Pre-chorus:
	V  V ^ V ^  V V    V V ^ V ^  V V
e|------0~-0-0-0-0--0-0---3~-3-3-3-3--3-3----------------------------------|
B|------0~-0-0-0-0--0-0---3~-3-3-3-3--3-3----------------------------------|
G|------0~-0-0-0-0--0-0---0~-0-0-0-0--0-0----------------------------------|
D|------2~-2-2-2-2--2-2---2~-2-2-2-2--2-2----------------------------------|
A|------2~-2-2-2-2--2-2---3~-3-3-3-3--3-3----------------------------------|
E|------0~-0-0-0-0--0-0----------------------------------------------------|
	I need to try to get to where you are 

	V  V ^ V ^  V V    V V ^ V ^  V V
e|------0~-0-0-0-0--0-0---2~-2-2-2-2--2-2~---------------------------------|
B|------0~-0-0-0-0--0-0---3~-3-3-3-3--3-3~---------------------------------|
G|------0~-0-0-0-0--0-0---2~-2-2-2-2--2-2~---------------------------------|
D|------2~-2-2-2-2--2-2---0~-0-0-0-0--0-0~---------------------------------|
A|------2~-2-2-2-2--2-2----------------------------------------------------|
E|------0~-0-0-0-0--0-0----------------------------------------------------|
	Could it be you're not that far? 

Chorus:

  	V  V ^ V ^  V  V ^ V ^  V  V ^ V ^ V  V ^ V ^
e|-----3~-3-3-3-3--3~-3-3-3-3--2~-2-2-2-2h3~-3-3-3-3-----------------------|
B|-----3~-3-3-3-3—-3~-3-3-3-3--3~-3-3-3-3-3~-3-3-3-3-----------------------|
G|-----0~-0-0-0-0--0~-0-0-0-0--2~-2-2-2-2-0~-0-0-0-0-----------------------|
D|-----2~-2-2-2-2--0~-0-0-0-0--0~-0-0-0-0-2~-2-2-2-2-----------------------|
A|-----3~-3-3-3-3--2~-2-2-2-2-------------2~-2-2-2-2-----------------------|
E|-----------------3~-3-3-3-3----------------------------------------------|
	You're the voice I hear inside my head 
	
	V  V ^ V ^  V  V ^ V ^  V V ^ V ^  V  V ^ V ^
e|-----3~-3-3-3-3--3~-3-3-3-3--0~-0-0-0-0--2~-2-2-2-2----------------------|
B|-----3~-3-3-3-3—-3~-3-3-3-3--0~-0-0-0-0--3~-3-3-3-3----------------------|
G|-----0~-0-0-0-0--0~-0-0-0-0--0~-0-0-0-0--2~-2-2-2-2----------------------|
D|-----2~-2-2-2-2--0~-0-0-0-0--2~-2-2-2-2--0~-0-0-0-0----------------------|
A|-----3~-3-3-3-3--2~-2-2-2-2--2~-2-2-2-2----------------------------------|
E|-----------------3~-3-3-3-3--0~-0-0-0-0----------------------------------|
       The reason that I'm singing 

	V  V ^ V ^  V  V ^ V ^  V  V ^ V ^ 
e|-----3~-3-3-3-3--3~-3-3-3-3--2~-2-2-2-2----------------------------------|
B|-----3~-3-3-3-3—-3~-3-3-3-3--3~-3-3-3-3----------------------------------|
G|-----0~-0-0-0-0--0~-0-0-0-0--2~-2-2-2-2----------------------------------|
D|---0h2~-2-2-2-2--0~-0-0-0-0--0~-0-0-0-0----------------------------------|
A|-----3~-3-3-3-3--2~-2-2-2-2----------------------------------------------|
E|-----------------3~-3-3-3-3----------------------------------------------|
	I need to find you, I gotta find you 
 
  	V  V ^ V ^  V  V ^ V ^  V  V ^ V ^ V  V ^ V ^
e|-----3~-3-3-3-3--3~-3-3-3-3--2~-2-2-2-2h3~-3-3-3-3-----------------------|
B|-----3~-3-3-3-3—-3~-3-3-3-3--3~-3-3-3-3-3~-3-3-3-3-----------------------|
G|-----0~-0-0-0-0--0~-0-0-0-0--2~-2-2-2-2-0~-0-0-0-0-----------------------|
D|-----2~-2-2-2-2--0~-0-0-0-0--0~-0-0-0-0-2~-2-2-2-2-----------------------|
A|-----3~-3-3-3-3--2~-2-2-2-2-------------2~-2-2-2-2-----------------------|
E|-----------------3~-3-3-3-3----------------------------------------------|
	Your the missing piece I need  
	
	V  V ^ V ^  V  V ^ V ^  V V ^ V ^  V  V ^ V ^
e|-----3~-3-3-3-3--3~-3-3-3-3--0~-0-0-0-0--2~-2-2-2-2----------------------|
B|-----3~-3-3-3-3—-3~-3-3-3-3--0~-0-0-0-0--3~-3-3-3-3----------------------|
G|-----0~-0-0-0-0--0~-0-0-0-0--0~-0-0-0-0--2~-2-2-2-2----------------------|
D|-----2~-2-2-2-2--0~-0-0-0-0--2~-2-2-2-2--0~-0-0-0-0----------------------|
A|-----3~-3-3-3-3--2~-2-2-2-2--2~-2-2-2-2----------------------------------|
E|-----------------3~-3-3-3-3--0~-0-0-0-0----------------------------------|
               The song inside of me 


	V  V ^ V ^  V  V ^ V ^  V  V ^ V ^ 
e|-----3~-3-3-3-3--3~-3-3-3-3--2~-2-2-2-2----------------------------------|
B|-----3~-3-3-3-3—-3~-3-3-3-3--3~-3-3-3-3----------------------------------|
G|-----0~-0-0-0-0--0~-0-0-0-0--2~-2-2-2-2----------------------------------|
D|---0h2~-2-2-2-2--0~-0-0-0-0--0~-0-0-0-0----------------------------------|
A|-----3~-3-3-3-3--2~-2-2-2-2----------------------------------------------|
E|-----------------3~-3-3-3-3----------------------------------------------|
	I need to find you, I gotta find you 
 
	V  V ^ V ^  V  V ^ V ^  V  V ^ V ^ V  V ^ V ^
e|-----3~-3-3-3-3--3~-3-3-3-3--2~-2-2-2-2h3~-3-3-3-3-----------------------|
B|-----3~-3-3-3-3—-3~-3-3-3-3--3~-3-3-3-3-3~-3-3-3-3-----------------------|
G|-----0~-0-0-0-0--0~-0-0-0-0--2~-2-2-2-2-0~-0-0-0-0-----------------------|
D|-----2~-2-2-2-2--0~-0-0-0-0--0~-0-0-0-0-2~-2-2-2-2-----------------------|
A|-----3~-3-3-3-3--2~-2-2-2-2-------------2~-2-2-2-2-----------------------|
E|-----------------3~-3-3-3-3----------------------------------------------|
	 			Yeah-e-yeah!
	
	V  V ^ V ^  V  V ^ V ^  V V ^ V ^  V  V ^ V ^
e|-----3~-3-3-3-3--3~-3-3-3-3--0~-0-0-0-0--2~-2-2-2-2----------------------|
B|-----3~-3-3-3-3—-3~-3-3-3-3--0~-0-0-0-0--3~-3-3-3-3----------------------|
G|-----0~-0-0-0-0--0~-0-0-0-0--0~-0-0-0-0--2~-2-2-2-2----------------------|
D|-----2~-2-2-2-2--0~-0-0-0-0--2~-2-2-2-2--0~-0-0-0-0----------------------|
A|-----3~-3-3-3-3--2~-2-2-2-2--2~-2-2-2-2----------------------------------|
E|-----------------3~-3-3-3-3--0~-0-0-0-0----------------------------------|
	
	 
Verse #2:

 V  V ^ V ^  V  V ^ V ^         V  V ^ V ^ V  V ^ V ^
e|-----3~-3-3-3-3--3~-3-3-3-3---------2~-2-2-2-2h3~-3-3-3-3----------------|
B|-----3~-3-3-3-3—-3~-3-3-3-3---------3~-3-3-3-3-3~-3-3-3-3----------------|
G|-----0~-0-0-0-0--0~-0-0-0-0-2h4p2p0-2~-2-2-2-2-0~-0-0-0-0----------------|
D|---0h2~-2-2-2-2--0~-0-0-0-0---------0~-0-0-0-0-2~-2-2-2-2----------------|
A|-----3~-3-3-3-3--2~-2-2-2-2--------------------2~-2-2-2-2----------------|
E|-----------------3~-3-3-3-3----------------------------------------------|
	 You're the remedy I'm searchin' hard to find 
	
	V  V ^ V ^  V  V ^ V ^        V V ^ V ^  V  V ^ V ^
e|-----3~-3-3-3-3--3~-3-3-3-3---------0~-0-0-0-0--2~-2-2-2-2---------------|
B|-----3~-3-3-3-3—-3~-3-3-3-3---------0~-0-0-0-0--3~-3-3-3-3---------------|
G|-----0~-0-0-0-0--0~-0-0-0-0-2h4p2p0-0~-0-0-0-0--2~-2-2-2-2---------------|
D|---0h2~-2-2-2-2--0~-0-0-0-0---------2~-2-2-2-2--0~-0-0-0-0---------------|
A|-----3~-3-3-3-3--2~-2-2-2-2---------2~-2-2-2-2---------------------------|
E|-----------------3~-3-3-3-3---------0~-0-0-0-0---------------------------|
               To fix the puzzle that I see inside 

	 V  V ^ V ^  V  V ^ V ^         V  V ^ V ^ V  V ^ V ^
e|-----3~-3-3-3-3--3~-3-3-3-3---------2~-2-2-2-2h3~-3-3-3-3----------------|
B|-----3~-3-3-3-3—-3~-3-3-3-3---------3~-3-3-3-3-3~-3-3-3-3----------------|
G|-----0~-0-0-0-0--0~-0-0-0-0-2h4p2p0-2~-2-2-2-2-0~-0-0-0-0----------------|
D|---0h2~-2-2-2-2--0~-0-0-0-0---------0~-0-0-0-0-2~-2-2-2-2----------------|
A|-----3~-3-3-3-3--2~-2-2-2-2--------------------2~-2-2-2-2----------------|
E|-----------------3~-3-3-3-3----------------------------------------------|
	Painting all my dreams the color of your smile 

	
       V  V ^ V ^  V  V ^ V ^        V V ^ V ^  V  V ^ V ^
e|-----3~-3-3-3-3--3~-3-3-3-3---------0~-0-0-0-0--2~-2-2-2-2---------------|
B|-----3~-3-3-3-3—-3~-3-3-3-3---------0~-0-0-0-0--3~-3-3-3-3---------------|
G|-----0~-0-0-0-0--0~-0-0-0-0-2h4p2p0-0~-0-0-0-0--2~-2-2-2-2---------------|
D|---0h2~-2-2-2-2--0~-0-0-0-0---------2~-2-2-2-2--0~-0-0-0-0---------------|
A|-----3~-3-3-3-3--2~-2-2-2-2---------2~-2-2-2-2---------------------------|
E|-----------------3~-3-3-3-3---------0~-0-0-0-0---------------------------|
	 When I find you it will be alright 

Pre-chorus:
	V  V ^ V ^  V V    V V ^ V ^  V V
e|------0~-0-0-0-0--0-0---3~-3-3-3-3--3-3----------------------------------|
B|------0~-0-0-0-0--0-0---3~-3-3-3-3--3-3----------------------------------|
G|------0~-0-0-0-0--0-0---0~-0-0-0-0--0-0-----------------------------------
D|------2~-2-2-2-2--2-2---2~-2-2-2-2--2-2----------------------------------|
A|------2~-2-2-2-2--2-2---3~-3-3-3-3--3-3----------------------------------|
E|------0~-0-0-0-0--0-0----------------------------------------------------|
	I need to try to get to where you are 

	V  V ^ V ^  V V    V V ^ V ^  V V
e|------0~-0-0-0-0--0-0---2~-2-2-2-2--2-2~---------------------------------|
B|------0~-0-0-0-0--0-0---3~-3-3-3-3--3-3~---------------------------------|
G|------0~-0-0-0-0--0-0---2~-2-2-2-2--2-2~---------------------------------|
D|------2~-2-2-2-2--2-2---0~-0-0-0-0--0-0~---------------------------------|
A|------2~-2-2-2-2--2-2----------------------------------------------------|
E|------0~-0-0-0-0--0-0----------------------------------------------------|
	Could it be you're not that far? 


  	V  V ^ V ^  V  V ^ V ^  V  V ^ V ^ V  V ^ V ^
e|-----3~-3-3-3-3--3~-3-3-3-3--2~-2-2-2-2h3~-3-3-3-3-----------------------|
B|-----3~-3-3-3-3—-3~-3-3-3-3--3~-3-3-3-3-3~-3-3-3-3-----------------------|
G|-----0~-0-0-0-0--0~-0-0-0-0--2~-2-2-2-2-0~-0-0-0-0-----------------------|
D|-----2~-2-2-2-2--0~-0-0-0-0--0~-0-0-0-0-2~-2-2-2-2-----------------------|
A|-----3~-3-3-3-3--2~-2-2-2-2-------------2~-2-2-2-2-----------------------|
E|-----------------3~-3-3-3-3----------------------------------------------|
	You're the voice I hear inside my head 
	
	V  V ^ V ^  V  V ^ V ^  V V ^ V ^  V  V ^ V ^
e|-----3~-3-3-3-3--3~-3-3-3-3--0~-0-0-0-0--2~-2-2-2-2----------------------|
B|-----3~-3-3-3-3—-3~-3-3-3-3--0~-0-0-0-0--3~-3-3-3-3----------------------|
G|-----0~-0-0-0-0--0~-0-0-0-0--0~-0-0-0-0--2~-2-2-2-2----------------------|
D|-----2~-2-2-2-2--0~-0-0-0-0--2~-2-2-2-2--0~-0-0-0-0----------------------|
A|-----3~-3-3-3-3--2~-2-2-2-2--2~-2-2-2-2----------------------------------|
E|-----------------3~-3-3-3-3--0~-0-0-0-0----------------------------------|
       The reason that I'm singing 

	V  V ^ V ^  V  V ^ V ^  V  V ^ V ^ 
e|-----3~-3-3-3-3--3~-3-3-3-3--2~-2-2-2-2----------------------------------|
B|-----3~-3-3-3-3—-3~-3-3-3-3--3~-3-3-3-3----------------------------------|
G|-----0~-0-0-0-0--0~-0-0-0-0--2~-2-2-2-2----------------------------------|
D|---0h2~-2-2-2-2--0~-0-0-0-0--0~-0-0-0-0----------------------------------|
A|-----3~-3-3-3-3--2~-2-2-2-2----------------------------------------------|
E|-----------------3~-3-3-3-3----------------------------------------------|
	I need to find you, I gotta find you 
 
  	V  V ^ V ^  V  V ^ V ^  V  V ^ V ^ V  V ^ V ^
e|-----3~-3-3-3-3--3~-3-3-3-3--2~-2-2-2-2h3~-3-3-3-3-----------------------|
B|-----3~-3-3-3-3—-3~-3-3-3-3--3~-3-3-3-3-3~-3-3-3-3-----------------------|
G|-----0~-0-0-0-0--0~-0-0-0-0--2~-2-2-2-2-0~-0-0-0-0-----------------------|
D|-----2~-2-2-2-2--0~-0-0-0-0--0~-0-0-0-0-2~-2-2-2-2-----------------------|
A|-----3~-3-3-3-3--2~-2-2-2-2-------------2~-2-2-2-2-----------------------|
E|-----------------3~-3-3-3-3----------------------------------------------|
	Your the missing piece I need  
	
	V  V ^ V ^  V  V ^ V ^  V V ^ V ^  V  V ^ V ^
e|-----3~-3-3-3-3--3~-3-3-3-3--0~-0-0-0-0--2~-2-2-2-2----------------------|
B|-----3~-3-3-3-3—-3~-3-3-3-3--0~-0-0-0-0--3~-3-3-3-3----------------------|
G|-----0~-0-0-0-0--0~-0-0-0-0--0~-0-0-0-0--2~-2-2-2-2----------------------|
D|-----2~-2-2-2-2--0~-0-0-0-0--2~-2-2-2-2--0~-0-0-0-0----------------------|
A|-----3~-3-3-3-3--2~-2-2-2-2--2~-2-2-2-2----------------------------------|
E|-----------------3~-3-3-3-3--0~-0-0-0-0----------------------------------|
               The song inside of me 


	V  V ^ V ^  V  V ^ V ^  V  V ^ V ^ 
e|-----3~-3-3-3-3--3~-3-3-3-3--2~-2-2-2-2----------------------------------|
B|-----3~-3-3-3-3—-3~-3-3-3-3--3~-3-3-3-3----------------------------------|
G|-----0~-0-0-0-0--0~-0-0-0-0--2~-2-2-2-2----------------------------------|
D|---0h2~-2-2-2-2--0~-0-0-0-0--0~-0-0-0-0----------------------------------|
A|-----3~-3-3-3-3--2~-2-2-2-2----------------------------------------------|
E|-----------------3~-3-3-3-3----------------------------------------------|
	I need to find you, I gotta find you 


Bridge:

  	V  V ^ V ^  V  V ^ V ^  V  V ^ V ^ V  V ^ V ^
e|-----3~-3-3-3-3--3~-3-3-3-3--2~-2-2-2-2h3~-3-3-3-3-----------------------|
B|-----3~-3-3-3-3—-3~-3-3-3-3--3~-3-3-3-3-3~-3-3-3-3-----------------------|
G|-----0~-0-0-0-0--0~-0-0-0-0--2~-2-2-2-2-0~-0-0-0-0-----------------------|
D|-----2~-2-2-2-2--0~-0-0-0-0--0~-0-0-0-0-2~-2-2-2-2-----------------------|
A|-----3~-3-3-3-3--2~-2-2-2-2-------------2~-2-2-2-2-----------------------|
E|-----------------3~-3-3-3-3----------------------------------------------|
               I been feeling lost, Cant find the words to say 
	
	V  V ^ V ^  V  V ^ V ^  V V ^ V ^  V  V ^ V ^
e|-----3~-3-3-3-3--3~-3-3-3-3--0~-0-0-0-0--2~-2-2-2-2----------------------|
B|-----3~-3-3-3-3—-3~-3-3-3-3--0~-0-0-0-0--3~-3-3-3-3----------------------|
G|-----0~-0-0-0-0--0~-0-0-0-0--0~-0-0-0-0--2~-2-2-2-2----------------------|
D|-----2~-2-2-2-2--0~-0-0-0-0--2~-2-2-2-2--0~-0-0-0-0----------------------|
A|-----3~-3-3-3-3--2~-2-2-2-2--2~-2-2-2-2----------------------------------|
E|-----------------3~-3-3-3-3--0~-0-0-0-0----------------------------------|
	Spendin' all my time stuck in yesterday 

	V  V ^ V ^  V  V ^ V ^  V V ^ V ^  V  V ^ V ^
e|-----3~-3-3-3-3--3~-3-3-3-3--0~-0-0-0-0--2~-2-2-2-2----------------------|
B|-----3~-3-3-3-3—-3~-3-3-3-3--0~-0-0-0-0--3~-3-3-3-3----------------------|
G|-----0~-0-0-0-0--0~-0-0-0-0--0~-0-0-0-0--2~-2-2-2-2----------------------|
D|-----2~-2-2-2-2--0~-0-0-0-0--2~-2-2-2-2--0~-0-0-0-0----------------------|
A|-----3~-3-3-3-3--2~-2-2-2-2--2~-2-2-2-2----------------------------------|
E|-----------------3~-3-3-3-3--0~-0-0-0-0----------------------------------|
	Where you are is where I wanna be 

	V  V ^ V ^  V  V ^ V ^  V  V ^ V ^ V  V ^ V ^
e|-----3~-3-3-3-3--3~-3-3-3-3--2~-2-2-2-2h3~-3-3-3-3-----------------------|
B|-----3~-3-3-3-3—-3~-3-3-3-3--3~-3-3-3-3-3~-3-3-3-3-----------------------|
G|-----0~-0-0-0-0--0~-0-0-0-0--2~-2-2-2-2-0~-0-0-0-0-----------------------|
D|-----2~-2-2-2-2--0~-0-0-0-0--0~-0-0-0-0-2~-2-2-2-2-----------------------|
A|-----3~-3-3-3-3--2~-2-2-2-2-------------2~-2-2-2-2-----------------------|
E|-----------------3~-3-3-3-3----------------------------------------------|
	Oh next to you, you next to me 

	V  V ^ V ^  V  V ^ V ^  V V ^ V ^  V  V ^ V ^
e|-----3~-3-3-3-3--3~-3-3-3-3--0~-0-0-0-0--2~-2-2-2-2----------------------|
B|-----3~-3-3-3-3—-3~-3-3-3-3--0~-0-0-0-0--3~-3-3-3-3----------------------|
G|-----0~-0-0-0-0--0~-0-0-0-0--0~-0-0-0-0--2~-2-2-2-2----------------------|
D|-----2~-2-2-2-2--0~-0-0-0-0--2~-2-2-2-2--0~-0-0-0-0----------------------|
A|-----3~-3-3-3-3--2~-2-2-2-2--2~-2-2-2-2----------------------------------|
E|-----------------3~-3-3-3-3--0~-0-0-0-0----------------------------------|
	Oh… I need to find you
	 
       V   V V V V V V V 
e|-----3~--3-3-3-3-3-3-3-3~------------------------------------------------|
B|-----3~--3-3-3-3-3-3-3-3~------------------------------------------------|
G|-----0~--0-0-0-0-0-0-0-0~------------------------------------------------|
D|-----0~--0-0-0-0-0-0-0-0~------------------------------------------------|
A|-----2~--2-2-2-2-2-2-2-2~------------------------------------------------|
E|-----3~--3-3-3-3-3-3-3-3~------------------------------------------------|
		Yeahhhh!!!!

	V  V ^ V ^  V  V ^ V ^  V  V ^ V ^ V  V ^ V ^
e|-----3~-3-3-3-3--3~-3-3-3-3--2~-2-2-2-2h3~-3-3-3-3-----------------------|
B|-----3~-3-3-3-3—-3~-3-3-3-3--3~-3-3-3-3-3~-3-3-3-3-----------------------|
G|-----0~-0-0-0-0--0~-0-0-0-0--2~-2-2-2-2-0~-0-0-0-0-----------------------|
D|-----2~-2-2-2-2--0~-0-0-0-0--0~-0-0-0-0-2~-2-2-2-2-----------------------|
A|-----3~-3-3-3-3--2~-2-2-2-2-------------2~-2-2-2-2-----------------------|
E|-----------------3~-3-3-3-3----------------------------------------------|
	You're the voice I hear inside my head 
	
	V  V ^ V ^  V  V ^ V ^  V V ^ V ^  V  V ^ V ^
e|-----3~-3-3-3-3--3~-3-3-3-3--0~-0-0-0-0--2~-2-2-2-2----------------------|
B|-----3~-3-3-3-3—-3~-3-3-3-3--0~-0-0-0-0--3~-3-3-3-3----------------------|
G|-----0~-0-0-0-0--0~-0-0-0-0--0~-0-0-0-0--2~-2-2-2-2----------------------|
D|-----2~-2-2-2-2--0~-0-0-0-0--2~-2-2-2-2--0~-0-0-0-0----------------------|
A|-----3~-3-3-3-3--2~-2-2-2-2--2~-2-2-2-2----------------------------------|
E|-----------------3~-3-3-3-3--0~-0-0-0-0----------------------------------|
       The reason that I'm singing 

	V  V ^ V ^  V  V ^ V ^  V  V ^ V ^ 
e|-----3~-3-3-3-3--3~-3-3-3-3--2~-2-2-2-2----------------------------------|
B|-----3~-3-3-3-3—-3~-3-3-3-3--3~-3-3-3-3----------------------------------|
G|-----0~-0-0-0-0--0~-0-0-0-0--2~-2-2-2-2----------------------------------|
D|---0h2~-2-2-2-2--0~-0-0-0-0--0~-0-0-0-0----------------------------------|
A|-----3~-3-3-3-3--2~-2-2-2-2----------------------------------------------|
E|-----------------3~-3-3-3-3----------------------------------------------|
	I need to find you, I gotta find you 
 
  	V  V ^ V ^  V  V ^ V ^  V  V ^ V ^ V  V ^ V ^
e|-----3~-3-3-3-3--3~-3-3-3-3--2~-2-2-2-2h3~-3-3-3-3-----------------------|
B|-----3~-3-3-3-3—-3~-3-3-3-3--3~-3-3-3-3-3~-3-3-3-3-----------------------|
G|-----0~-0-0-0-0--0~-0-0-0-0--2~-2-2-2-2-0~-0-0-0-0-----------------------|
D|-----2~-2-2-2-2--0~-0-0-0-0--0~-0-0-0-0-2~-2-2-2-2-----------------------|
A|-----3~-3-3-3-3--2~-2-2-2-2-------------2~-2-2-2-2-----------------------|
E|-----------------3~-3-3-3-3----------------------------------------------|
	Your the missing piece I need  
	
	V  V ^ V ^  V  V ^ V ^  V V ^ V ^  V  V ^ V ^
e|-----3~-3-3-3-3--3~-3-3-3-3--0~-0-0-0-0--2~-2-2-2-2----------------------|
B|-----3~-3-3-3-3—-3~-3-3-3-3--0~-0-0-0-0--3~-3-3-3-3----------------------|
G|-----0~-0-0-0-0--0~-0-0-0-0--0~-0-0-0-0--2~-2-2-2-2----------------------|
D|-----2~-2-2-2-2--0~-0-0-0-0--2~-2-2-2-2--0~-0-0-0-0----------------------|
A|-----3~-3-3-3-3--2~-2-2-2-2--2~-2-2-2-2----------------------------------|
E|-----------------3~-3-3-3-3--0~-0-0-0-0----------------------------------|
               The song inside of me 


	V  V ^ V ^  V  V ^ V ^  V  V ^ V ^ 
e|-----3~-3-3-3-3--3~-3-3-3-3--2~-2-2-2-2----------------------------------|
B|-----3~-3-3-3-3—-3~-3-3-3-3--3~-3-3-3-3----------------------------------|
G|-----0~-0-0-0-0--0~-0-0-0-0--2~-2-2-2-2----------------------------------|
D|---0h2~-2-2-2-2--0~-0-0-0-0--0~-0-0-0-0----------------------------------|
A|-----3~-3-3-3-3--2~-2-2-2-2----------------------------------------------|
E|-----------------3~-3-3-3-3----------------------------------------------|
	I need to find you, I gotta find you 

	V  V ^ V ^  V  V ^ V ^  V  V ^ V ^ V  V ^ V ^
e|-----3~-3-3-3-3--3~-3-3-3-3--2~-2-2-2-2h3~-3-3-3-3-----------------------|
B|-----3~-3-3-3-3—-3~-3-3-3-3--3~-3-3-3-3-3~-3-3-3-3-----------------------|
G|-----0~-0-0-0-0--0~-0-0-0-0--2~-2-2-2-2-0~-0-0-0-0-----------------------|
D|-----2~-2-2-2-2--0~-0-0-0-0--0~-0-0-0-0-2~-2-2-2-2-----------------------|
A|-----3~-3-3-3-3--2~-2-2-2-2-------------2~-2-2-2-2-----------------------|
E|-----------------3~-3-3-3-3----------------------------------------------|
	You're the voice I hear inside my head 
	
	V  V ^ V ^  V  V ^ V ^  V V ^ V ^  V  V ^ V ^
e|-----3~-3-3-3-3--3~-3-3-3-3--0~-0-0-0-0--2~-2-2-2-2----------------------|
B|-----3~-3-3-3-3—-3~-3-3-3-3--0~-0-0-0-0--3~-3-3-3-3----------------------|
G|-----0~-0-0-0-0--0~-0-0-0-0--0~-0-0-0-0--2~-2-2-2-2----------------------|
D|-----2~-2-2-2-2--0~-0-0-0-0--2~-2-2-2-2--0~-0-0-0-0----------------------|
A|-----3~-3-3-3-3--2~-2-2-2-2--2~-2-2-2-2----------------------------------|
E|-----------------3~-3-3-3-3--0~-0-0-0-0----------------------------------|
       The reason that I'm singing 

	V  V ^ V ^  V  V ^ V ^  V  V ^ V ^ 
e|-----3~-3-3-3-3--3~-3-3-3-3--2~-2-2-2-2----------------------------------|
B|-----3~-3-3-3-3—-3~-3-3-3-3--3~-3-3-3-3----------------------------------|
G|-----0~-0-0-0-0--0~-0-0-0-0--2~-2-2-2-2----------------------------------|
D|---0h2~-2-2-2-2--0~-0-0-0-0--0~-0-0-0-0----------------------------------|
A|-----3~-3-3-3-3--2~-2-2-2-2----------------------------------------------|
E|-----------------3~-3-3-3-3----------------------------------------------|
	I need to find you, I gotta find you 
 
  	V  V ^ V ^  V  V ^ V ^  V  V ^ V ^ V  V ^ V ^
e|-----3~-3-3-3-3--3~-3-3-3-3--2~-2-2-2-2h3~-3-3-3-3-----------------------|
B|-----3~-3-3-3-3—-3~-3-3-3-3--3~-3-3-3-3-3~-3-3-3-3-----------------------|
G|-----0~-0-0-0-0--0~-0-0-0-0--2~-2-2-2-2-0~-0-0-0-0-----------------------|
D|-----2~-2-2-2-2--0~-0-0-0-0--0~-0-0-0-0-2~-2-2-2-2-----------------------|
A|-----3~-3-3-3-3--2~-2-2-2-2-------------2~-2-2-2-2-----------------------|
E|-----------------3~-3-3-3-3----------------------------------------------|
	You’re the missing piece I need  
	
	V  V ^ V ^  V  V ^ V ^  V V ^ V ^  V  V ^ V ^
e|-----3~-3-3-3-3--3~-3-3-3-3--0~-0-0-0-0--2~-2-2-2-2----------------------|
B|-----3~-3-3-3-3—-3~-3-3-3-3--0~-0-0-0-0--3~-3-3-3-3----------------------|
G|-----0~-0-0-0-0--0~-0-0-0-0--0~-0-0-0-0--2~-2-2-2-2----------------------|
D|-----2~-2-2-2-2--0~-0-0-0-0--2~-2-2-2-2--0~-0-0-0-0----------------------|
A|-----3~-3-3-3-3--2~-2-2-2-2--2~-2-2-2-2----------------------------------|
E|-----------------3~-3-3-3-3--0~-0-0-0-0----------------------------------|
               The song inside of me 


	V  V ^ V ^  V  V ^ V ^  V  V ^ V ^ 
e|-----3~-3-3-3-3--3~-3-3-3-3--2~-2-2-2-2----------------------------------|
B|-----3~-3-3-3-3—-3~-3-3-3-3--3~-3-3-3-3----------------------------------|
G|-----0~-0-0-0-0--0~-0-0-0-0--2~-2-2-2-2----------------------------------|
D|---0h2~-2-2-2-2--0~-0-0-0-0--0~-0-0-0-0----------------------------------|
A|-----3~-3-3-3-3--2~-2-2-2-2----------------------------------------------|
E|-----------------3~-3-3-3-3----------------------------------------------|
	I need to find you, I gotta find you 



	V  V ^ V ^  V  V ^ V ^  V V ^ V ^  V  V ^ V ^
e|-----3~-3-3-3-3--3~-3-3-3-3--0~-0-0-0-0--2~-2-2-2-2----------------------|
B|-----3~-3-3-3-3—-3~-3-3-3-3--0~-0-0-0-0--3~-3-3-3-3----------------------|
G|-----0~-0-0-0-0--0~-0-0-0-0--0~-0-0-0-0--2~-2-2-2-2----------------------|
D|-----2~-2-2-2-2--0~-0-0-0-0--2~-2-2-2-2--0~-0-0-0-0----------------------|
A|-----3~-3-3-3-3--2~-2-2-2-2--2~-2-2-2-2----------------------------------|
E|-----------------3~-3-3-3-3--0~-0-0-0-0----------------------------------|
	I gotta find you.  Yeahhhhhhh

  	V  V ^ V ^  V  V ^ V ^  V  V ^ V ^ V  V ^ V ^  V V
e|-----3~-3-3-3-3--3~-3-3-3-3--2~-2-2-2-2h3~-3-3-3-3--3-3---2~-------------|
B|-----3~-3-3-3-3—-3~-3-3-3-3--3~-3-3-3-3-3~-3-3-3-3--3-3---3~-------------|
G|-----0~-0-0-0-0--0~-0-0-0-0--2~-2-2-2-2-0~-0-0-0-0--0-0---2~-------------|
D|-----2~-2-2-2-2--0~-0-0-0-0--0~-0-0-0-0-2~-2-2-2-2--2-2---0~-------------|
A|-----3~-3-3-3-3--2~-2-2-2-2-------------2~-2-2-2-2--2-2------------------|
E|-----------------3~-3-3-3-3----------------------------------------------|
	I gotta find you…

comment.

---aznguitarist123
| /  slide up
|   slide down
| h  hammer-on
| p  pull-off
| ~  let ring
| +  harmonic
| x  Mute note
============================================================================

Fuente: Www.Ultimate-guitar.com





Calificar esta versión:
Aviso: Este fichero es trabajo propio de su transcriptor y representa su interpretación personal de la canción. El material contenido en esta página es para exclusivo uso privado, por lo que se prohibe su reproducción o retransmisión, así como su uso para fines comerciales.
Más versiones de I Gotta Find You, Jonas Brothers
I Gotta Find You
acordes
I Gotta Find You (ver 2)
acordes
I Gotta Find You (ver 3)
acordes
I Gotta Find You (ver 4)
acordes
I Gotta Find You
tablatura
I Gotta Find You (ver 2)
tablatura
Descubre más canciones de Jonas Brothers