Damage Control, John Petrucci (tablatura)

Autor: eric_slayer(696) | 43449 visualizaciones



E||-------------------------|-----------------------|------------------------| 
B||-------------------------|-----------------------|------------------------| 
G||*------------------------|-----------------------|------------------------| 
D||*------------------------|-----------------------|------------------------| 
A||---4--4------4--2--4--4--|------4--2--4--9--7----|--4--4------4--2--4--4--| 
E||---2--2------2--0--2--2--|------2--0--2--7--5----|--2--2------2--0--2--2--| 
 
 
                                                                           
------------------------|------------------------|-----------------------| 
------------------------|------------------------|-----------------------| 
------------------------|------------------------|-----------------------| 
------------------------|------------------------|-----------------------| 
------4--2--4--5--4--2--|--4--4------4--2--4--4--|------4--2--4--9--7----| 
------2--0--2--3--2--0--|--2--2------2--0--2--2--|------2--0--2--7--5----| 
 
 
                                                                         
------------------------|-----------------------|----------------------| 
------------------------|-----------------------|----------------------| 
------------------------|-----------------------|-----------3r---------| 
------------------------|-----------------------|--------4-------4-----| 
--4--4------4--2--4--4--|------4--2--2---2---3--|-----4-------------4--| 
--2--2------2--0--2--2--|------2--0--0---0---1--|--2-------------------| 
 
 
                                                                           
---------------------|-------------------------|---------9--12--9--------| 
--------5------------|-------------------------|-------------------------| 
-----4---------------|-----------3r---------4--|--7--12------------------| 
---------------------|--------4-------4--5-----|-------------------------| 
--5------------------|-----4-------------------|-------------------------| 
---------------------|--2----------------------|-------------------------| 
 
 
                                                                           
------------------------|---------------------|-----------0--------------| 
------------------------|-----7--5------------|--------------0-----------| 
----3-----6r---------4--|--6------------------|-----------------3--------| 
-------4-------4--5-----|---------------------|----4-2-------------4--5--| 
------------------------|---------------------|--------4-----------------| 
------------------------|---------------------|--------------------------| 
 
 
                                                            
------------9--11--13--15----|----------------------------| 
-----------------------------|----------------------------| 
--4--7--12-------------------|--------------15r-----------| 
-----------------------------|----------16--------16------| 
-----------------------------|------16----------------16--| 
-----------------------------|--14------------------------| 
 
 
                                                           
------------------------|--------------------------------| 
----------17------------|--------------------------------| 
------16----------------|--------------15r-----------16--| 
------------------------|----------16--------16--17------| 
--17--------------------|------16------------------------| 
------------------------|--14----------------------------| 
 
 
                                                             
----------21--24--21--------|------------------------------| 
----------------------------|------------------------------| 
--19--24--------------------|----15------18r-----------16--| 
----------------------------|--------16--------16--17------| 
----------------------------|------------------------------| 
----------------------------|------------------------------| 
 
 
                                                             
------------------------|----------------------------------| 
------19--17------------|----------------------------------| 
--18--------------------|------------------16--15----------| 
------------------------|----16-14-----14----------16--17--| 
------------------------|----------16----------------------| 
------------------------|----------------------------------| 
 
 
                                                                   
--------------21--24------12--|--14----------15--14----------14--| 
------------------------------|------12--15--------------12------| 
--16--19--24------------------|----------------------11----------| 
------------------------------|----------------------------------| 
------------------------------|----------------------------------| 
------------------------------|----------------------------------| 
 
 
                                                              
--12---------12--9--10-9---------|--------------------------| 
---------10--------------12--10--|--12----------------------| 
------9--------------------------|----------9-11-9------11--| 
---------------------------------|--------------------------| 
---------------------------------|--------------------------| 
---------------------------------|--------------------------| 
 
 
                                                                     
------------------15----14--12--|--14----------15--14----------14--| 
------12--15--------------------|------12--15--------------12------| 
--12----------12----------------|----------------------11----------| 
--------------------------------|----------------------------------| 
--------------------------------|----------------------------------| 
--------------------------------|----------------------------------| 
 
 
                                                                        
--17------12--17--19-17-15-14--------------------|--------------------| 
------14----------------------17-15--14----------|----------------17--| 
----------------------------------------16-14-16-|------------16------| 
-------------------------------------------------|--------------------| 
-------------------------------------------------|--------------------| 
-------------------------------------------------|--------------------| 
 
 
                                                                 
--------15--19------20-------||--------15--22-19-------22------| 
--19b-----------17-----------||--19b-------------20------------| 
----------------------------*||---------------------19---------| 
----------------------------*||--------------------------------| 
-----------------------------||--------------------------------| 
-----------------------------||--------------------------------| 
 
 
                                                             
|-----------------------------|----------------------------| 
|-----------------------------|----------------------------| 
|*--------------11r-----------|----------12--15--14----12--| 
|*----------12--------12------|------12--------------------| 
|-------12----------------12--|--13------------------------| 
|---10------------------------|----------------------------| 
 
 
                                                       
--------------14r-----------|------------------------| 
----------15--------15------|------15--18--17--------| 
------14----------------14--|--15--------------------| 
--16------------------------|------------------------| 
----------------------------|------------------------| 
----------------------------|------------------------| 
 
 
                                                           
----------------------------|----------------------------| 
----------------------------|----------------------------| 
--------------11r-----------|----------12--15--14----12--| 
----------12--------12------|------12--------------------| 
------12----------------12--|--13------------------------| 
--10------------------------|----------------------------| 
 
 
                                                                  
----------------------|--------------------|--------------------| 
----------------------|--------------------|--------------------| 
--11--7-----11--9--6--|--7--4-----7--6-----|--------------------| 
---------7------------|--------4--------7--|--9--5-----9--7--4--| 
----------------------|--------------------|--------5-----------| 
----------------------|--------------------|--------------------| 
 
 
                                                                            
--------------------|-----------------|------------------||---------------| 
--------------------|-----------------|------------------||---------------| 
--------------------|-----7--4--6--7--|-----9--6--7--9--*||---------------| 
-----4--5-----4--5--|--5--------------|--7--------------*||--7------------| 
--------------------|-----------------|------------------||--7------------| 
--0--------2--------|-----------------|------------------||--5------------| 
 
 
                                                                     
----------------|---------------|------------------|---------------| 
----------------|---------------|--8------7----8-7-|--5------------| 
----------------|---------------|------------------|---------------| 
--4------5------|--5------------|------------------|---------------| 
----------------|--5------------|------------------|---------------| 
----------------|--3------------|------------------|---------------| 
 
 
                                                                           
------------------|----------------|-------------------|-----------------| 
------------10----|--10b-----------|--10r---7----------|-----------------| 
--6----7----------|----------------|-----------9r---7--|--9--7-9---------| 
------------------|----------------|-------------------|-----------------| 
------------------|----------------|-------------------|-----------------| 
------------------|----------------|-------------------|-----------------| 
 
 
                                                                        
--0--------------|-----------------|----------------|-----------------| 
--0--------------|-----------------|----------------|-----------------| 
--0--------------|---------7-------|--6------7------|---------7-------| 
--2-----------4--|--5-----------5--|----------------|--7-----------7--| 
-----------7-----|-----------------|----------------|-----------------| 
-----------------|-----------------|----------------|-----------------| 
 
 
                                                       
-----------------------------9-|--10-----------------| 
---------------------8-10-12---|---------------------| 
-------7-9----7-9-11-----------|------------7--------| 
--9-11-----11------------------|------------7--------| 
-------------------------------|------------5--------| 
-------------------------------|------------5--------| 
 
 
                                                                             
--------------------------|----------------------------|-------------------| 
--------------------------|----------------------------|-------------------| 
------12--14--14r-----12--|--11----------11--12--11----|--5----------------| 
--------------------------|----------12----------------|--5----------------| 
--------------------------|----------------------------|--3----------------| 
--------------------------|----------------------------|--3----------------| 
 
 
                                                                             
-------------------|------15--17--17r-----15--|--14----------14--15--14----| 
-------------------|--------------------------|----------15----------------| 
--7----------------|--------------------------|----------------------------| 
--7----------------|--------------------------|----------------------------| 
--5----------------|--------------------------|----------------------------| 
--5----------------|--------------------------|----------------------------| 
 
 
                                                                           
--------------------------|-------------------|--------------------------| 
--------------------------|-------------------|--------------------------| 
--17--15------------------|--7----------------|------12--14--14r-----12--| 
--17--15------17--15------|--7----------------|--------------------------| 
--------------17--15------|--5----------------|--------------------------| 
--------------------------|--5----------------|--------------------------| 
 
 
                                                                      
----------------------------|-------------------|-------------------| 
----------------------------|-------------------|-------------------| 
--11----------11--12--11----|--5----------------|--7----------------| 
----------12----------------|--5----------------|--7----------------| 
----------------------------|--3----------------|--5----------------| 
----------------------------|--3----------------|--5----------------| 
 
 
                                                                                
------15--17--17r-----15--|--14----------14--15--14----|----------------------| 
--------------------------|----------15----------------|----------------------| 
--------------------------|----------------------------|--5--3----------------| 
--------------------------|----------------------------|--5--3------5--3------| 
--------------------------|----------------------------|------------5--3------| 
--------------------------|----------------------------|----------------------| 
 
 
                                                             
---------------------------|-------------------------------| 
---------------------------|------------------------0------| 
------------------------2--|--------------5h4h0-----0------| 
--2---2-2-2------2--2-2----|--2---2-2--2--------4h0--------| 
--0---0-0-0-3b---0--0-0----|--0---0-0--0-------------------| 
---------------------------|-------------------------------| 
 
 
                                                      
---------------------------|------------------------| 
---------------------------|--------------8----7----| 
------------------------2--|--------------7----7----| 
--2---2-2-2------2--2-2----|--2---2-2--2--7----7----| 
--0---0-0-0-3b---0--0-0----|--0---0-0--0------------| 
---------------------------|------------------------| 
 
 
                                                             
---------------------------|-------------------------------| 
---------------------------|------------------------0------| 
------------------------2--|--------------5h4h0-----0------| 
--2---2-2-2------2--2-2----|--2---2-2--2--------4h0--------| 
--0---0-0-0-3b---0--0-0----|--0---0-0--0-------------------| 
---------------------------|-------------------------------| 
 
 
                                                      
---------------------------|------------------------| 
---------------------------|--------------8----7----| 
------------------------2--|--------------7----7----| 
--2---2-2-2------2--2-2----|--2---2-2--2--7----7----| 
--0---0-0-0-3b---0--0-0----|--0---0-0--0------------| 
---------------------------|------------------------| 
 
 
                                                            
-------------------------------|--------------------------| 
-------------------------------|--------------------------| 
-------------------------------|----------------2----4----| 
--------4------2-2-2------2----|--------4-------2----4----| 
----------------------2h4------|----------------0----2----| 
--2-2-2-----2------------------|--2-2-2-----2-2-----------| 
 
 
                                                                  
-------------------------------|--------------------------------| 
-------------------------------|--------------------------------| 
-------------------------------|--------------------------------| 
--------4------2-2-2------2----|--------4---4-4-4-2-------------| 
----------------------2h4------|--------------------4-3-2-0-----| 
--2-2-2-----2------------------|--2-2-2---------------------2-0-| 
 
 
                                                            
-------------------------------|--------------------------| 
-------------------------------|--------------------------| 
-------------------------------|----------------2----4----| 
--------4------2-2-2------2----|--------4-------2----4----| 
----------------------2h4------|----------------0----2----| 
--2-2-2-----2------------------|--2-2-2-----2-2-----------| 
 
 
                                                                    
-------------------------------|----------------------------------| 
-------------------------------|----------------------------------| 
-------------------------------|----------------2h3h2-------------| 
--------4------2-2-2------2----|--------4---4-4-------4-2---------| 
----------------------2h4------|--------------------------4-3-2-0-| 
--2-2-2-----2------------------|--2-2-2---------------------------| 
 
 
                                                                       
----------------------------------|----------------------------------| 
-----------11---------------------|-----------11---------------------| 
-----------11---------------------|-----------11---------------------| 
-----------11---------------------|-----------11---------------------| 
----------------------------------|----------------------------------| 
--11-11-11------11----9-9-9-9-10--|--11-11-11------11----9-9-9-9-10--| 
 
 
                                                                   
----------------------------------|------------------------------| 
-----------11---------------------|-----------11-----------13----| 
-----------11---------------------|-----------11-----------13----| 
-----------11---------------------|-----------11-----------13----| 
----------------------------------|------------------------------| 
--11-11-11------11----9-9-9-9-10--|--11-11-11------11------------| 
 
 
                                                                                 
--14-14-14-14-14--------------------------|--14-14-14-14-14----------------11--| 
--13-13-13-13-13--11b---------------------|--13-13-13-13-13--11b---11----------| 
------------------11b---------------------|------------------11b-------13b-----| 
------------------------13-11-------------|------------------------------------| 
------------------------------13-12-11----|------------------------------------| 
---------------------------------------14-|------------------------------------| 
 
 
                                                                             
------11----------------------------------------|--------------------------| 
--14b----14-11----11----------------------------|--------------------------| 
---------------14----14-13----13-12-11----------|-----------11-------------| 
---------------------------13----------13-11----|--11-12-13----------------| 
---------------------------------------------13-|--------------------------| 
------------------------------------------------|--------------------------| 
 
 
                                                            
|----------------------------|----------------------------| 
|---4---4---4----------------|-------4--------------------| 
|*--3---3---3----------------|-------3--------------------| 
|*--1---1---1----------------|----------------------------| 
|---3---3---3----------1-2-3-|--3--3-----3---------1-2-3--| 
|----------------1-2-3-------|---------------1-2-3--------| 
 
 
                                                                           
----------------------------|------------------------||------------------| 
-------4--------------------|-------4-----6----6-----||------------------| 
-------3--------------------|-------3-----5----5----*||------------------| 
----------------------------|-------------3----3----*||------------------| 
--3--3-----3---------1-2-3--|--3--3-------5----5-----||------------------| 
---------------1-2-3--------|------------------------||------------------| 
 
 
                                                                                
------------------|---------------------------|-------------------------------| 
------------------|---------------------------|------------------------0------| 
------------------|------------------------2--|--------------5h4h0-----0------| 
------------------|--2---2-2-2------2--2-2----|--2---2-2--2--------4h0--------| 
------------------|--0---0-0-0-3b---0--0-0----|--0---0-0--0-------------------| 
------------------|---------------------------|-------------------------------| 
 
 
                                                      
---------------------------|------------------------| 
---------------------------|--------------8----7----| 
------------------------2--|--------------7----7----| 
--2---2-2-2------2--2-2----|--2---2-2--2--7----7----| 
--0---0-0-0-3b---0--0-0----|--0---0-0--0------------| 
---------------------------|------------------------| 
 
 
                                                             
---------------------------|-------------------------------| 
---------------------------|------------------------0------| 
------------------------2--|--------------5h4h0-----0------| 
--2---2-2-2------2--2-2----|--2---2-2--2--------4h0--------| 
--0---0-0-0-3b---0--0-0----|--0---0-0--0-------------------| 
---------------------------|-------------------------------| 
 
 
                                                      
---------------------------|------------------------| 
---------------------------|--------------8----7----| 
------------------------2--|--------------7----7----| 
--2---2-2-2------2--2-2----|--2---2-2--2--7----7----| 
--0---0-0-0-3b---0--0-0----|--0---0-0--0------------| 
---------------------------|------------------------| 
 
 
                                                                
----------------------------------|---------------------------| 
----------------------------------|---------------------------| 
----------------------------------|---------------------------| 
----------------------------------|---------------------------| 
--------2---------------2---------|---------------------------| 
--2-3-5---5-3-2-3-2-3-5---5-3-2-3-|--0--0-0---0-0-0-0--0-0----| 
 
 
                                                                
----------------------------------|---------------------------| 
----------------------------------|---------------------------| 
----------------------------------|---------------------------| 
----------------------------------|---------------------------| 
--------2---------------2---------|--3--3-3---3-3-3-3--3-3----| 
--2-3-5---5-3-2-3-2-3-5---5-3-2-3-|---------------------------| 
 
 
                                                                
----------------------------------|---------------------------| 
----------------------------------|---------------------------| 
----------------------------------|---------------------------| 
----------------------------------|---------------------------| 
--------2---------------2---------|---------------------------| 
--2-3-5---5-3-2-3-2-3-5---5-3-2-3-|--0--0-0---0-0-0-0--0-0----| 
 
 
                                                                
----------------------------------|---------------------------| 
----------------------------------|---------------------------| 
----------------------------------|---------------------------| 
----------------------------------|---------------------------| 
--------2---------------2---------|--0--0-0---0-0-0-0--0-0----| 
--2-3-5---5-3-2-3-2-3-5---5-3-2-3-|---------------------------| 
 
 
                                                                       
--------------------------------|------------------------------------| 
--------------------------------|------------------------------12----| 
--------------------4------9----|------------------11------11--------| 
------5-----4-----5-------------|------7-10---9h12----9h12-----------| 
--2-3---2-3---5/7-----7/10------|--7h9------9------------------------| 
--------------------------------|------------------------------------| 
 
 
                                                                     
------------------------------|------------------------------------| 
------------------------------|------------------------------12----| 
------------------------------|------------------11------11--------| 
------5-----4------------2----|------7-10---9h12----9h12-----------| 
--2-3---2-3----0-2-0-5-0------|--7h9------9------------------------| 
------------------------------|------------------------------------| 
 
 
                                                                       
--------------------------------|------------------------------------| 
--------------------------------|------------------------------12----| 
--------------------4------9----|------------------11------11--------| 
------5-----4-----5-------------|------7-10---9h12----9h12-----------| 
--2-3---2-3---5/7-----7/10------|--7h9------9------------------------| 
--------------------------------|------------------------------------| 
 
 
                                            
------------------------------------------| 
------------------------------------------| 
------------------------------------------| 
--------------------10------9-------10-14-| 
------7-10---7/9-12----9-12---10/12-------| 
--7/8------8------------------------------| 
 
 
                                                    
--------------------------------------------------| 
-----------------------------------------------13-| 
--------------14-------12-------12-16----12h14----| 
-----10/12-16----12h14----12h14-------14----------| 
--12----------------------------------------------| 
--------------------------------------------------| 
 
 
                                                                         
--12----------------15-19-------15-19-------19-22-|--22b---------------| 
-----12h13-17-15h17-------17h19-------19h20-------|--------------------| 
--------------------------------------------------|--------------------| 
--------------------------------------------------|--------------------| 
--------------------------------------------------|--------------------| 
--------------------------------------------------|--------------------| 
 
 
                                                    
--22h19-------------16-19-16/13-------------10-13/| 
--------20-------17-------------14-------11-------| 
-----------19/16-------------------13/10----------| 
--------------------------------------------------| 
--------------------------------------------------| 
--------------------------------------------------| 
 
 
                                                  
--16-13-------------------------10-13-12-9------| 
--------14-------------------11------------10---| 
-----------13-------------10------------------9-| 
--------------15-------12-----------------------| 
-----------------16/13--------------------------| 
------------------------------------------------| 
 
 
                                              
--------------------------------------------| 
--------------------------------------------| 
------------------8-10h8--------------------| 
-----9-12----9-12--------12-10-9----9-10-12-| 
--10------10---------------------10---------| 
--------------------------------------------| 
 
 
                                         
---------------------------------------| 
---------------------------------------| 
------------------8-10h8---------------| 
-----9-12----9-12--------12-10-9-------| 
--10------10---------------------10----| 
---------------------------------------| 
 
 
                                              
--------------------------------------------| 
--------------------------------------------| 
------------------8-10h8--------------------| 
-----9-12----9-12--------12-10-9----9-10-12-| 
--10------10---------------------10---------| 
--------------------------------------------| 
 
 
                                         
---------------------------------------| 
---------------------------------------| 
------------------8-12h8---------------| 
-----9-12----9-12--------12-10-9-------| 
--10------10---------------------10----| 
---------------------------------------| 
 
 
                                                    
--------------------------------------------------| 
--------------------------------------------------| 
--------------------11-13h11----------------------| 
-----12-15----12-15----------15-13-12----12-13-15-| 
--13-------13-------------------------13----------| 
--------------------------------------------------| 
 
 
                                              
--------------------------------------------| 
--------------------------------------------| 
--------------------11-13h11----------------| 
-----12-15----12-15----------15-13-12-------| 
--13-------13-------------------------13----| 
--------------------------------------------| 
 
 
                                                    
--------------------------------------------------| 
--------------------------------------------------| 
--------------------11-13h11----------------------| 
-----12-15----12-15----------15-13-12----12-13-15-| 
--13-------13-------------------------13----------| 
--------------------------------------------------| 
 
 
                                              
--------------------------------------------| 
--------------------------------------------| 
--------------------11-15h11----------------| 
-----12-15----12-15----------15-13-12-------| 
--13-------13-------------------------13----| 
--------------------------------------------| 
 
 
                                              
--------------------------------------------| 
--------------------------------------------| 
------------------8-10h8--------------------| 
-----9-12----9-12--------12-10-9----9-10-12-| 
--10------10---------------------10---------| 
--------------------------------------------| 
 
 
                                         
---------------------------------------| 
---------------------------------------| 
------------------8-10h8---------------| 
-----9-12----9-12--------12-10-9-------| 
--10------10---------------------10----| 
---------------------------------------| 
 
 
                                              
--------------------------------------------| 
--------------------------------------------| 
------------------8-10h8--------------------| 
-----9-12----9-12--------12-10-9----9-10-12-| 
--10------10---------------------10---------| 
--------------------------------------------| 
 
 
                                         
---------------------------------------| 
---------------------------------------| 
------------------8-12h8---------------| 
-----9-12----9-12--------12-10-9-------| 
--10------10---------------------10----| 
---------------------------------------| 
 
 
                                                    
--------------------------------------------------| 
--------------------------------------------------| 
--------------------11-13h11----------------------| 
-----12-15----12-15----------15-13-12----12-13-15-| 
--13-------13-------------------------13----------| 
--------------------------------------------------| 
 
 
                                              
--------------------------------------------| 
--------------------------------------------| 
--------------------11-13h11----------------| 
-----12-15----12-15----------15-13-12-------| 
--13-------13-------------------------13----| 
--------------------------------------------| 
 
 
                                                    
--------------------------------------------------| 
--------------------------------------------------| 
--------------------11-13h11----------------------| 
-----12-15----12-15----------15-13-12----12-13-15-| 
--13-------13-------------------------13----------| 
--------------------------------------------------| 
 
 
                                                    
--------------------------------------------------| 
--------------------------------------------------| 
--------------------11-15-13-11----------------11-| 
-----12-15----12-15-------------15-13-12-13-15----| 
--13-------13-------------------------------------| 
--------------------------------------------------| 
 
 
                                                    
--------------------------------------------------| 
--------------------------14h15h14-------18-16-15-| 
--15-13-11-16-15-13-15-16----------16-15----------| 
--------------------------------------------------| 
--------------------------------------------------| 
--------------------------------------------------| 
 
 
                                                    
--18h14-------19-16-------------------------------| 
--------16----------17-12----------------12-------| 
-----------15-------------13----------------13----| 
-----------------------------14----------------14-| 
--------------------------------14-11-------------| 
--------------------------------------12----------| 
 
 
                                                   
-----------------------------------------12h9----| 
--15h11----------------11-15h11-14h11---------10-| 
--------------------------------------11---------| 
--------15h12----12h15---------------------------| 
--------------13---------------------------------| 
-------------------------------------------------| 
 
 
                                                                                 
--13h9----------------9-13h9-12h9-------------|--14------10--14--12--9--10-----| 
----------------------------------10-15h12----|------10---------------------7--| 
-------13h10----10h13----------------------13-|--------------------------------| 
-------------11-------------------------------|--------------------------------| 
----------------------------------------------|--------------------------------| 
----------------------------------------------|--------------------------------| 
 
 
                                                        
--7--10--9--5--7-----3--7--|--5--2--3--------3h-2-----| 
------------------3--------|--------------5--------3--| 
---------------------------|-----------4--------------| 
---------------------------|--------------------------| 
---------------------------|--------------------------| 
---------------------------|--------------------------| 
 
 
                                                       
--0--------0--------0-----|-----0--------0--------0--| 
--------3-----3-----------|--3-----3-----------2-----| 
-----2-----------2-----2--|-----------2-----2--------| 
--------------------------|--------------------------| 
--------------------------|--------------------------| 
--------------------------|--------------------------| 
 
 
                                                           
--------0--------0--------||-----------------------------| 
--2-----------2-----2-----||-----------------------------| 
-----2-----2-----------2--||*--------------11r-----------| 
--------------------------||*----------12--------12------| 
--------------------------||-------12----------------12--| 
--------------------------||---10------------------------| 
 
 
                                                           
----------------------------|--------------14r-----------| 
----------------------------|----------15--------15------| 
----------12--15--14----12--|------14----------------14--| 
------12--------------------|--16------------------------| 
--13------------------------|----------------------------| 
----------------------------|----------------------------| 
 
 
                                                       
------------------------|----------------------------| 
------15--18--17--------|----------------------------| 
--15--------------------|--------------11r-----------| 
------------------------|----------12--------12------| 
------------------------|------12----------------12--| 
------------------------|--10------------------------| 
 
 
                                                                          
----------------------------|----------------------|--------------------| 
----------------------------|----------------------|--------------------| 
----------12--15--14----12--|--11--7-----11--9--6--|--7--4-----7--6-----| 
------12--------------------|---------7------------|--------4--------7--| 
--13------------------------|----------------------|--------------------| 
----------------------------|----------------------|--------------------| 
 
 
                                                                                 
--------------------|--------------------|-----------------|------------------|| 
--------------------|--------------------|-----------------|------------------|| 
--------------------|--------------------|-----7--4--6--7--|-----9--6--7--9--*|| 
--9--5-----9--7--4--|-----4--5-----4--5--|--5--------------|--7--------------*|| 
--------5-----------|--------------------|-----------------|------------------|| 
--------------------|--0--------2--------|-----------------|------------------|| 
 
 
                                                                     
---------------|----------------|---------------|------------------| 
---------------|----------------|---------------|--8------7----8-7-| 
---------------|----------------|---------------|------------------| 
--7------------|--4------5------|--5------------|------------------| 
--7------------|----------------|--5------------|------------------| 
--5------------|----------------|--3------------|------------------| 
 
 
                                                                         
---------------|------------------|----------------|-------------------| 
--5------------|------------10----|--10b-----------|--10r---7----------| 
---------------|--6----7----------|----------------|-----------9r---7--| 
---------------|------------------|----------------|-------------------| 
---------------|------------------|----------------|-------------------| 
---------------|------------------|----------------|-------------------| 
 
 
                                                                
-----------------|--0------------------|----------------15----| 
-----------------|--0------------------|------15--------------| 
--9--7-9---------|--0----------11--12--|------------12--------| 
-----------------|--2------------------|----------------------| 
-----------------|---------------------|----------------------| 
-----------------|---------------------|----------------------| 
 
 
                                                                      
----14----15-14-12------|----------------------|--17----17b---------| 
------------------------|----15----14----15----|--------------------| 
------------------------|----------------------|--------------------| 
------------------------|----------------------|--------------------| 
------------------------|----------------------|--------------------| 
------------------------|----------------------|--------------------| 
 
 
                                                                           
----17r---14------------|--19/16-----------------------------------------| 
--------------17r---15--|--------17-------17-----------------------------| 
------------------------|-----------16/14----14/13-----------------------| 
------------------------|--------------------------14-------14-----------| 
------------------------|-----------------------------14/12----12h11-----| 
------------------------|--------------------------------------------12--| 
 
 
                                                                          
--------------------|--------------------------|------------------------| 
--------------------|----------15--------14----|----15--------------15--| 
----------------11--|--12------------12--------|------------14----------| 
--------------------|--------------------------|------------------------| 
--------------------|--------------------------|------------------------| 
--------------------|--------------------------|------------------------| 
 
 
                                                                          
------------------------|--------------------|--------------------------| 
--------14------15------|--------------------|--------------------------| 
----14------------------|-----------7--------|------12--14--14r-----12--| 
------------------------|--7--------7--------|--------------------------| 
------------------------|--5--------5--------|--------------------------| 
------------------------|--5--------5--------|--------------------------| 
 
 
                                                                      
----------------------------|-------------------|-------------------| 
----------------------------|-------------------|-------------------| 
--11----------11--12--11----|--5----------------|--7----------------| 
----------12----------------|--5----------------|--7----------------| 
----------------------------|--3----------------|--5----------------| 
----------------------------|--3----------------|--5----------------| 
 
 
                                                         
------15--17--17r-----15--|--14----------14--15--14----| 
--------------------------|----------15----------------| 
--------------------------|----------------------------| 
--------------------------|----------------------------| 
--------------------------|----------------------------| 
--------------------------|----------------------------| 
 
 
                                                                         
--------------------------|--------------------------------------------| 
--------------------------|-----------------13-15-16-15-13-15-16-15-13-| 
--17--15------------------|------12--14--15----------------------------| 
--17--15------17--15------|--16----------------------------------------| 
--------------17--15------|--------------------------------------------| 
--------------------------|--------------------------------------------| 
 
 
                                                                                 
--------------------------------------------14-15-17-15-14-15-17-15-14-15-17-15- 
--15-16-15-13-15-16-15-13-15-16-15-13-15-16------------------------------------- 
-------------------------------------------------------------------------------- 
-------------------------------------------------------------------------------- 
-------------------------------------------------------------------------------- 
-------------------------------------------------------------------------------- 
 
 
                                                                             
---------------------------------------------------------------------------| 
--15-13--------------------------------------------------------------------| 
--------15-14-12-15-14-12-15-14-12-15-14-12-14-15-14-12-14-15-14-12-11-----| 
---------------------------------------------------------------------------| 
---------------------------------------------------------------------------| 
---------------------------------------------------------------------------| 
 
 
                                                 
--------------------------|-------------------|| 
--------------------------|-------------------|| 
--17--15------------------|--7----------------|| 
--17--15------17--15------|--7----------------|| 
--------------17--15------|--5----------------|| 
--------------------------|--5----------------|| 
bueno esto es todo cualquiera equicocacion avisen





Calificar esta versión:
Aviso: Este fichero es trabajo propio de su transcriptor y representa su interpretación personal de la canción. El material contenido en esta página es para exclusivo uso privado, por lo que se prohibe su reproducción o retransmisión, así como su uso para fines comerciales.
Más versiones de Damage Control, John Petrucci
Damage Control
tablatura
Damage Control (ver 2)
tablatura
Descubre más canciones de John Petrucci