I Love Rock And Roll, Joan Jett And The Blackhearts (tablatura) (ver 6)

Autor: nacho2000 | 46193 visualizaciones



intro
e|-------------------------------------------------|e
B|-------------------------------------------------|B
G|------------------------2-2-----4-4--------------|G
D|--2-2-----2-2-----------2-2-----4-4--------------|D
A|--2-2-----2-2-----------0-0-----2-2--------------|A
E|--0-0-----0-0-0H3B~-------------------0H3B~------|E


e|-------------------------------------------------|e
B|-------------------------------------------------|B
G|------------------------2-2-----4-2--------------|G
D|--2-2-----2-2-----------2-2-----4-2-2---------2--|D
A|--2-2-----2-2-----------0-0-----2-0-2---------2--|A
E|--0-0-----0-0-0H3B~-----------------0---------0--|E


e|--------------------------------|e
B|---15B--12~---------------------|B
G|------------14--12~-------------|G
D|--------------------------------|D
A|--------------------------------|A
E|--------------------------------|E



e|--------------------------------|e
B|--3P0---------------------------|B
G|-------2P0----------------------|G
D|-----------2~-------------------|D
A|--------------------------------|A
E|--------------------------------|E



e|-------------------------------------------------|e
B|-------------------------------------------------|B
G|-------------------------------------------------|G
D|--2-2-------------2-2----------------------------|D
A|--2-2-------------2-2----------------------------|A
E|--0-0-------------0-0----------------------------|E


e|--------------------------------|e
B|---15B--12~---------------------|B
G|------------14--12~-------------|G
D|--------------------------------|D
A|--------------------------------|A
E|--------------------------------|E


e|--------------------------------|e
B|--3P0---------------------------|B
G|-------2P0----------------------|G
D|-----------2~-------------------|D
A|--------------------------------|A
E|--------------------------------|E





e|-------------------------------------------------|e
B|-------------------------------------------------|B
G|------------------4--4---------------------------|G
D|--2-2-------------4--4---------------------------|D
A|--2-2-------------2--2---------------------------|A
E|--0-0--------------------------------------------|E




e|--------------------------------|e
B|---15B--12~---------------------|B
G|------------14--12~-------------|G
D|--------------------------------|D
A|--------------------------------|A
E|--------------------------------|E

Guitar 2 Riff, same time as riff 1

e|--------------------------------|e
B|--3P0---------------------------|B
G|-------2P0----------------------|G
D|-----------2~-------------------|D
A|--------------------------------|A
E|--------------------------------|E


e|----------------------------------------|e
B|----------------------------------------|B
G|--2-2----4-4-----------------2~~~-------|G
D|--2-2----4-4---------2-2-----2~~~-------|D
A|--0-0----2-2---------2-2-----0~~~-------|A
E|---------------------0-0----------------|E



e|--------------------------------|e
B|--------------------------------|B
G|---4-4-4-4-4-4-4----------------|G
D|---4-4-4-4-4-4-4----------------|D
A|---2-2-2-2-2-2-2----------------|A
E|--------------------------------|E



e|-------------------------------------------------|e
B|-------------------------------------------------|B
G|------------------------2-2-----4-4--------------|G
D|--2-2-----2-2-----------2-2-----4-4--------------|D
A|--2-2-----2-2-----------0-0-----2-2--------------|A
E|--0-0-----0-0-0H3B~-------------------0H3B~------|E


   
e|-------------------------------------------------|e
B|-------------------------------------------------|B
G|------------------------2-2-----4-2--------------|G
D|--2-2-----2-2-----------2-2-----4-2-2---------2--|D
A|--2-2-----2-2-----------0-0-----2-0-2---------2--|A
E|--0-0-----0-0-0H3B~-----------------0---------0--|E


e|--------------------------------|e
B|---15B--12~---------------------|B
G|------------14--12~-------------|G
D|--------------------------------|D
A|--------------------------------|A
E|--------------------------------|E



e|--------------------------------|e
B|--3P0---------------------------|B
G|-------2P0----------------------|G
D|-----------2~-------------------|D
A|--------------------------------|A
E|--------------------------------|E



e|-------------------------------------------------|e
B|-------------------------------------------------|B
G|-------------------------------------------------|G
D|--2-2-------------2-2----------------------------|D
A|--2-2-------------2-2----------------------------|A
E|--0-0-------------0-0----------------------------|E


e|--------------------------------|e
B|---15B--12~---------------------|B
G|------------14--12~-------------|G
D|--------------------------------|D
A|--------------------------------|A
E|--------------------------------|E



e|--------------------------------|e
B|--3P0---------------------------|B
G|-------2P0----------------------|G
D|-----------2~-------------------|D
A|--------------------------------|A
E|--------------------------------|E





e|-------------------------------------------------|e
B|-------------------------------------------------|B
G|------------------4--4---------------------------|G
D|--2-2-------------4--4---------------------------|D
A|--2-2-------------2--2---------------------------|A
E|--0-0--------------------------------------------|E



 Riff 
e|--------------------------------|e
B|---15B--12~---------------------|B
G|------------14--12~-------------|G
D|--------------------------------|D
A|--------------------------------|A
E|--------------------------------|E

e|--------------------------------|e
B|--3P0---------------------------|B
G|-------2P0----------------------|G
D|-----------2~-------------------|D
A|--------------------------------|A
E|--------------------------------|E




e|----------------------------------------|e
B|----------------------------------------|B
G|--2-2----4-4-----------------2~~~-------|G
D|--2-2----4-4---------2-2-----2~~~-------|D
A|--0-0----2-2---------2-2-----0~~~-------|A
E|---------------------0-0----------------|E





e|--------------------------------|e
B|--------------------------------|B
G|---4-4-4-4-4-4-4----------------|G
D|---4-4-4-4-4-4-4----------------|D
A|---2-2-2-2-2-2-2----------------|A
E|--------------------------------|E




e|-------------------------------------------------------------|e
B|-------------------------------------------------------------|B
G|--------------------4-----4-----4------2-2--4-4---------2~~~-|G
D|--2-----2-----2-----4-----4-----4------2-2--4-4--2-2----2~~~-|D
A|--2-----2-----2-----2-----2-----2------0-0--2-2--2-2----0~~~-|A
E|--0-----0-----0----------------------------------0-0---------|E



Solo
                     
e|-----------------------------|e
B|-----------------------------|B
G|----------------------7~~~---|G
D|--2-2-----------------6~~~---|D
A|--2-2-----------------7~~~---|A
E|--0-0--2B----2B--0-----------|E

e|------------------------12-----------------------|e
B|---------------------------------12-----12-------|B
G|---------9--11-----11B------11B---------11B------|G
D|----9/11-----------------------------------------|D
A|-------------------------------------------------|A
E|-------------------------------------------------|E


e|-----------------------------------|e
B|--------------------------12-------|B
G|---9----9H11------------9----------|G
D|-----11--------XX--9H11------------|D
A|-----------------------------------|A
E|-----------------------------------|E

e|----------------------------------------------------|e
B|----------------------------------------------------|B
G|--9-X-9/8---8-X-8/6---6-X-6/4---4-X-4/2----2-X-2/1--|G
D|----------------------------------------------------|D
A|----------------------------------------------------|A
E|----------------------------------------------------|E


e|--------------------|e
B|--------------------|B
G|--1-1-1-------------|G
D|--------4-2---2~----|D
A|------------4-------|A
E|--------------------|E



Riff 
    E E     E E           A A     B B 
e|-------------------------------------------------|e
B|-------------------------------------------------|B
G|------------------------2-2-----4-4--------------|G
D|--2-2-----2-2-----------2-2-----4-4--------------|D
A|--2-2-----2-2-----------0-0-----2-2--------------|A
E|--0-0-----0-0-0H3B~-------------------0H3B~------|E





Calificar esta versión:
Aviso: Este fichero es trabajo propio de su transcriptor y representa su interpretación personal de la canción. El material contenido en esta página es para exclusivo uso privado, por lo que se prohibe su reproducción o retransmisión, así como su uso para fines comerciales.
Más versiones de I Love Rock And Roll, Joan Jett And The Blackhearts
I Love Rock And Roll
tablatura
I Love Rock And Roll (ver 2)
tablatura
I Love Rock And Roll (ver 3)
tablatura
I Love Rock And Roll (ver 4)
tablatura
I Love Rock And Roll (ver 5)
tablatura
I Love Rock And Roll (ver 6)
tablatura
Descubre más canciones de Joan Jett And The Blackhearts